  0
SECTION
  2
HEADER
  9
$ACADVER
  1
AC1009
  9
$INSBASE
 10
0.0
 20
0.0
 30
0.0
  9
$EXTMIN
 10
-1099.548306
 20
-1101.37937
 30
0.0
  9
$EXTMAX
 10
966.796897
 20
532.150285
 30
0.0
  9
$LIMMIN
 10
-6000.0
 20
-4500.0
  9
$LIMMAX
 10
6000.0
 20
4500.0
  9
$ORTHOMODE
 70
     0
  9
$REGENMODE
 70
     1
  9
$FILLMODE
 70
     1
  9
$QTEXTMODE
 70
     0
  9
$MIRRTEXT
 70
     0
  9
$DRAGMODE
 70
     2
  9
$LTSCALE
 40
20.0
  9
$OSMODE
 70
    37
  9
$ATTMODE
 70
     1
  9
$TEXTSIZE
 40
64.0
  9
$TRACEWID
 40
0.05
  9
$TEXTSTYLE
  7
STANDARD
  9
$CLAYER
  8
0
  9
$CELTYPE
  6
CONTINUOUS
  9
$CECOLOR
 62
     7
  9
$DIMSCALE
 40
1.0
  9
$DIMASZ
 40
10.0
  9
$DIMEXO
 40
20.0
  9
$DIMDLI
 40
200.0
  9
$DIMRND
 40
0.0
  9
$DIMDLE
 40
0.0
  9
$DIMEXE
 40
30.0
  9
$DIMTP
 40
0.0
  9
$DIMTM
 40
0.0
  9
$DIMTXT
 40
64.0
  9
$DIMCEN
 40
0.0
  9
$DIMTSZ
 40
0.0
  9
$DIMTOL
 70
     0
  9
$DIMLIM
 70
     0
  9
$DIMTIH
 70
     0
  9
$DIMTOH
 70
     0
  9
$DIMSE1
 70
     0
  9
$DIMSE2
 70
     0
  9
$DIMTAD
 70
     1
  9
$DIMZIN
 70
     8
  9
$DIMBLK
  1

  9
$DIMASO
 70
     1
  9
$DIMSHO
 70
     0
  9
$DIMPOST
  1

  9
$DIMAPOST
  1

  9
$DIMALT
 70
     0
  9
$DIMALTD
 70
     2
  9
$DIMALTF
 40
25.4
  9
$DIMLFAC
 40
1.0
  9
$DIMTOFL
 70
     1
  9
$DIMTVP
 40
0.0
  9
$DIMTIX
 70
     1
  9
$DIMSOXD
 70
     0
  9
$DIMSAH
 70
     1
  9
$DIMBLK1
  1

  9
$DIMBLK2
  1

  9
$DIMSTYLE
  2
STANDARD
  9
$DIMCLRD
 70
     0
  9
$DIMCLRE
 70
     0
  9
$DIMCLRT
 70
     0
  9
$DIMTFAC
 40
1.0
  9
$DIMGAP
 40
0.09
  9
$LUNITS
 70
     2
  9
$LUPREC
 70
     4
  9
$SKETCHINC
 40
0.1
  9
$FILLETRAD
 40
10.0
  9
$AUNITS
 70
     1
  9
$AUPREC
 70
     3
  9
$MENU
  1
ACAD
  9
$ELEVATION
 40
0.0
  9
$PELEVATION
 40
0.0
  9
$THICKNESS
 40
0.0
  9
$LIMCHECK
 70
     0
  9
$BLIPMODE
 70
     0
  9
$CHAMFERA
 40
0.0
  9
$CHAMFERB
 40
0.0
  9
$SKPOLY
 70
     0
  9
$TDCREATE
 40
2450330.439931
  9
$TDUPDATE
 40
2452236.802184
  9
$TDINDWG
 40
1.356007
  9
$TDUSRTIMER
 40
1.356007
  9
$USRTIMER
 70
     1
  9
$ANGBASE
 50
0.0
  9
$ANGDIR
 70
     0
  9
$PDMODE
 70
     3
  9
$PDSIZE
 40
-2.0
  9
$PLINEWID
 40
0.0
  9
$COORDS
 70
     2
  9
$SPLFRAME
 70
     0
  9
$SPLINETYPE
 70
     6
  9
$SPLINESEGS
 70
     8
  9
$ATTDIA
 70
     0
  9
$ATTREQ
 70
     1
  9
$HANDLING
 70
     1
  9
$HANDSEED
  5
1D8
  9
$SURFTAB1
 70
     6
  9
$SURFTAB2
 70
     6
  9
$SURFTYPE
 70
     6
  9
$SURFU
 70
     6
  9
$SURFV
 70
     6
  9
$UCSNAME
  2

  9
$UCSORG
 10
0.0
 20
0.0
 30
0.0
  9
$UCSXDIR
 10
1.0
 20
0.0
 30
0.0
  9
$UCSYDIR
 10
0.0
 20
1.0
 30
0.0
  9
$PUCSNAME
  2

  9
$PUCSORG
 10
0.0
 20
0.0
 30
0.0
  9
$PUCSXDIR
 10
1.0
 20
0.0
 30
0.0
  9
$PUCSYDIR
 10
0.0
 20
1.0
 30
0.0
  9
$USERI1
 70
     0
  9
$USERI2
 70
     0
  9
$USERI3
 70
     0
  9
$USERI4
 70
     0
  9
$USERI5
 70
     0
  9
$USERR1
 40
20.0
  9
$USERR2
 40
0.0
  9
$USERR3
 40
0.0
  9
$USERR4
 40
0.0
  9
$USERR5
 40
0.0
  9
$WORLDVIEW
 70
     1
  9
$SHADEDGE
 70
     3
  9
$SHADEDIF
 70
    70
  9
$TILEMODE
 70
     1
  9
$MAXACTVP
 70
    48
  9
$PLIMCHECK
 70
     0
  9
$PEXTMIN
 10
1.000000E+020
 20
1.000000E+020
 30
1.000000E+020
  9
$PEXTMAX
 10
-1.000000E+020
 20
-1.000000E+020
 30
-1.000000E+020
  9
$PLIMMIN
 10
0.0
 20
0.0
  9
$PLIMMAX
 10
12.0
 20
9.0
  9
$UNITMODE
 70
     0
  9
$VISRETAIN
 70
     1
  9
$PLINEGEN
 70
     0
  9
$PSLTSCALE
 70
     1
  0
ENDSEC
  0
SECTION
  2
TABLES
  0
TABLE
  2
VPORT
 70
     2
  0
VPORT
  2
*ACTIVE
 70
     0
 10
0.0
 20
0.0
 11
1.0
 21
1.0
 12
2372.424723
 22
0.0
 13
0.0
 23
0.0
 14
50.0
 24
50.0
 15
100.0
 25
100.0
 16
0.0
 26
0.0
 36
1.0
 17
0.0
 27
0.0
 37
0.0
 40
9000.0
 41
1.860539
 42
50.0
 43
0.0
 44
0.0
 50
0.0
 51
0.0
 71
     0
 72
  1000
 73
     1
 74
     0
 75
     0
 76
     0
 77
     0
 78
     0
  0
ENDTAB
  0
TABLE
  2
LTYPE
 70
     2
  0
LTYPE
  2
CONTINUOUS
 70
     0
  3
実線
 72
    65
 73
     0
 40
0.0
  0
LTYPE
  2
DASHDOT
 70
     0
  3
____ _ ____ _ ____ _ ____ _ ____ _ ____ _ ____
 72
    65
 73
     4
 40
5.5
 49
4.0
 49
-0.6
 49
0.3
 49
-0.6
  0
ENDTAB
  0
TABLE
  2
LAYER
 70
    12
  0
LAYER
  2
0
 70
     0
 62
     7
  6
CONTINUOUS
  0
LAYER
  2
OUTLINE
 70
     0
 62
     3
  6
CONTINUOUS
  0
LAYER
  2
DETAIL
 70
     0
 62
     5
  6
CONTINUOUS
  0
LAYER
  2
BASIS
 70
     0
 62
     6
  6
DASHDOT
  0
LAYER
  2
SIZE
 70
     0
 62
    30
  6
CONTINUOUS
  0
LAYER
  2
NOTE
 70
     0
 62
     4
  6
CONTINUOUS
  0
LAYER
  2
ARRANGE
 70
     0
 62
     1
  6
CONTINUOUS
  0
LAYER
  2
FIX
 70
     0
 62
    11
  6
CONTINUOUS
  0
LAYER
  2
SERVICESPACE
 70
     0
 62
     2
  6
DASHDOT
  0
LAYER
  2
ETC
 70
     0
 62
    61
  6
CONTINUOUS
  0
LAYER
  2
SYMBOLLINE
 70
     0
 62
    15
  6
CONTINUOUS
  0
LAYER
  2
DEFPOINTS
 70
     0
 62
     7
  6
CONTINUOUS
  0
ENDTAB
  0
TABLE
  2
STYLE
 70
     1
  0
STYLE
  2
STANDARD
 70
     0
 40
0.0
 41
0.9
 50
0.0
 71
     0
 42
64.0
  3
SIMPLEX
  4
BIGFONT
  0
ENDTAB
  0
TABLE
  2
VIEW
 70
     1
  0
VIEW
  2
ALL
 70
     0
 40
9000.0
 10
241.506647
 20
0.0
 41
12483.01
 11
0.0
 21
0.0
 31
1.0
 12
0.0
 22
0.0
 32
0.0
 42
50.0
 43
0.0
 44
0.0
 50
0.0
 71
     0
  0
ENDTAB
  0
TABLE
  2
UCS
 70
     0
  0
ENDTAB
  0
TABLE
  2
APPID
 70
     1
  0
APPID
  2
ACAD
 70
     0
  0
ENDTAB
  0
TABLE
  2
DIMSTYLE
 70
     1
  0
DIMSTYLE
  2
STANDARD
 70
     0
  3

  4

  5

  6

  7

 40
1.0
 41
0.18
 42
0.0625
 43
0.38
 44
0.18
 45
0.0
 46
0.0
 47
0.0
 48
0.0
140
0.18
141
0.09
142
0.0
143
25.4
144
1.0
145
0.0
146
1.0
147
0.09
 71
     0
 72
     0
 73
     1
 74
     1
 75
     0
 76
     0
 77
     0
 78
     0
170
     0
171
     2
172
     0
173
     0
174
     0
175
     0
176
     0
177
     0
178
     0
  0
ENDTAB
  0
ENDSEC
  0
SECTION
  2
BLOCKS
  0
BLOCK
  8
0
  2
$MODEL_SPACE
 70
     0
 10
0.0
 20
0.0
 30
0.0
  3
$MODEL_SPACE
  1

  0
ENDBLK
  5
1BE
  8
0
  0
BLOCK
 67
     1
  8
0
  2
$PAPER_SPACE
 70
     0
 10
0.0
 20
0.0
 30
0.0
  3
$PAPER_SPACE
  1

  0
ENDBLK
  5
1BB
 67
     1
  8
0
  0
ENDSEC
  0
SECTION
  2
ENTITIES
  0
LINE
  5
2E
  8
DETAIL
  6
CONTINUOUS
 62
     5
 10
-184.513153
 20
-679.996405
 30
0.0
 11
192.490822
 21
-680.003751
 31
0.0
  0
TEXT
  5
2F
  8
ETC
  6
CONTINUOUS
 62
    61
 10
341.24534
 20
467.744029
 30
0.0
 40
64.0
  1
UCL-P8VHB_5
 41
0.9
  0
LINE
  5
31
  8
DETAIL
  6
CONTINUOUS
 62
     5
 10
-184.500097
 20
-10.000399
 30
0.0
 11
184.499902
 21
-10.00759
 31
0.0
  0
LINE
  5
32
  8
DETAIL
  6
CONTINUOUS
 62
     5
 10
18.412321
 20
-704.582484
 30
0.0
 11
91.995979
 21
-680.0
 31
0.0
  0
LINE
  5
33
  8
DETAIL
  6
CONTINUOUS
 62
     5
 10
-10.510099
 20
-729.999708
 30
0.0
 11
-10.520503
 21
-704.58192
 31
0.0
  0
LINE
  5
34
  8
DETAIL
  6
CONTINUOUS
 62
     5
 10
18.422725
 20
-730.000271
 30
0.0
 11
18.412321
 21
-704.582484
 31
0.0
  0
LINE
  5
35
  8
NOTE
  6
CONTINUOUS
 62
     4
 10
4.489511
 20
-750.0
 30
0.0
 11
4.49029
 21
-710.0
 31
0.0
  0
LINE
  5
36
  8
NOTE
  6
CONTINUOUS
 62
     4
 10
-15.510099
 20
-729.99961
 30
0.0
 11
24.489901
 21
-730.00039
 31
0.0
  0
LINE
  5
37
  8
SIZE
  6
CONTINUOUS
 62
    30
 10
4.489121
 20
-770.0
 30
0.0
 11
4.485569
 21
-952.285807
 31
0.0
  0
LINE
  5
38
  8
SIZE
  6
CONTINUOUS
 62
    30
 10
-184.509567
 20
-699.996405
 30
0.0
 11
-184.514483
 21
-952.282124
 31
0.0
  0
LINE
  5
39
  8
SIZE
  6
CONTINUOUS
 62
    30
 10
-5.513846
 20
-922.285612
 30
0.0
 11
-174.513899
 21
-922.282319
 31
0.0
  0
CIRCLE
  5
3A
  8
SIZE
  6
CONTINUOUS
 62
    30
 10
4.486154
 20
-922.285807
 30
0.0
 40
5.0
  0
LINE
  5
3B
  8
SIZE
  6
CONTINUOUS
 62
    30
 10
-0.513846
 20
-922.285709
 30
0.0
 11
-5.513846
 21
-922.285612
 31
0.0
  0
CIRCLE
  5
3C
  8
SIZE
  6
CONTINUOUS
 62
    30
 10
-184.513899
 20
-922.282124
 30
0.0
 40
5.0
  0
LINE
  5
3D
  8
SIZE
  6
CONTINUOUS
 62
    30
 10
-179.513899
 20
-922.282221
 30
0.0
 11
-174.513899
 21
-922.282319
 31
0.0
  0
TEXT
  5
3E
  8
SIZE
  6
CONTINUOUS
 62
    30
 10
-157.213483
 20
-902.282656
 30
0.0
 40
64.0
  1
189
 50
359.998884
 41
0.9
 72
     1
 11
-90.013483
 21
-902.283965
 31
0.0
  0
POINT
  5
3F
  8
DEFPOINTS
  6
CONTINUOUS
 62
     7
 10
4.489511
 20
-750.0
 30
0.0
  0
POINT
  5
40
  8
DEFPOINTS
  6
CONTINUOUS
 62
     7
 10
-184.509178
 20
-679.996405
 30
0.0
  0
POINT
  5
41
  8
DEFPOINTS
  6
CONTINUOUS
 62
     7
 10
-184.513899
 20
-922.282124
 30
0.0
  0
LINE
  5
42
  8
BASIS
  6
DASHDOT
 62
     6
 10
0.000945
 20
96.943415
 30
0.0
 11
-0.006791
 21
-697.0
 31
0.0
  0
LINE
  5
43
  8
DETAIL
  6
CONTINUOUS
 62
     5
 10
18.422725
 20
-730.000271
 30
0.0
 11
-10.510099
 21
-729.999708
 31
0.0
  0
LINE
  5
44
  8
DETAIL
  6
CONTINUOUS
 62
     5
 10
-184.499903
 20
-0.000663
 30
0.0
 11
-184.513153
 21
-679.996405
 31
0.0
  0
LINE
  5
45
  8
SIZE
  6
CONTINUOUS
 62
    30
 10
-238.499903
 20
0.00039
 30
0.0
 11
-585.015027
 21
0.007142
 31
0.0
  0
LINE
  5
46
  8
SIZE
  6
CONTINUOUS
 62
    30
 10
-306.50756
 20
-595.998285
 30
0.0
 11
-585.026641
 21
-595.992858
 31
0.0
  0
LINE
  5
47
  8
SIZE
  6
CONTINUOUS
 62
    30
 10
-555.015222
 20
-9.993443
 30
0.0
 11
-555.026446
 21
-585.993443
 31
0.0
  0
CIRCLE
  5
48
  8
SIZE
  6
CONTINUOUS
 62
    30
 10
-555.015027
 20
0.006557
 30
0.0
 40
5.0
  0
LINE
  5
49
  8
SIZE
  6
CONTINUOUS
 62
    30
 10
-555.015125
 20
-4.993443
 30
0.0
 11
-555.015222
 21
-9.993443
 31
0.0
  0
CIRCLE
  5
4A
  8
SIZE
  6
CONTINUOUS
 62
    30
 10
-555.026641
 20
-595.993443
 30
0.0
 40
5.0
  0
LINE
  5
4B
  8
SIZE
  6
CONTINUOUS
 62
    30
 10
-555.026543
 20
-590.993443
 30
0.0
 11
-555.026446
 21
-585.993443
 31
0.0
  0
TEXT
  5
4C
  8
SIZE
  6
CONTINUOUS
 62
    30
 10
-575.02225
 20
-370.678767
 30
0.0
 40
64.0
  1
596
 50
89.998884
 41
0.9
 72
     1
 11
-575.020834
 21
-297.993053
 31
0.0
  0
POINT
  5
4D
  8
DEFPOINTS
  6
CONTINUOUS
 62
     7
 10
-218.499903
 20
0.0
 30
0.0
  0
POINT
  5
4E
  8
DEFPOINTS
  6
CONTINUOUS
 62
     7
 10
-286.50756
 20
-595.998675
 30
0.0
  0
POINT
  5
4F
  8
DEFPOINTS
  6
CONTINUOUS
 62
     7
 10
-555.026641
 20
-595.993443
 30
0.0
  0
LINE
  5
50
  8
SIZE
  6
CONTINUOUS
 62
    30
 10
-238.499903
 20
0.00039
 30
0.0
 11
-453.795288
 21
0.004585
 31
0.0
  0
LINE
  5
51
  8
SIZE
  6
CONTINUOUS
 62
    30
 10
-268.507502
 20
-592.999026
 30
0.0
 11
-453.806843
 21
-592.995415
 31
0.0
  0
LINE
  5
52
  8
SIZE
  6
CONTINUOUS
 62
    30
 10
-423.795483
 20
-9.996
 30
0.0
 11
-423.806648
 21
-582.996
 31
0.0
  0
CIRCLE
  5
53
  8
SIZE
  6
CONTINUOUS
 62
    30
 10
-423.795288
 20
0.004
 30
0.0
 40
5.0
  0
LINE
  5
54
  8
SIZE
  6
CONTINUOUS
 62
    30
 10
-423.795385
 20
-4.996
 30
0.0
 11
-423.795483
 21
-9.996
 31
0.0
  0
CIRCLE
  5
55
  8
SIZE
  6
CONTINUOUS
 62
    30
 10
-423.806843
 20
-592.996
 30
0.0
 40
5.0
  0
LINE
  5
56
  8
SIZE
  6
CONTINUOUS
 62
    30
 10
-423.806746
 20
-587.996
 30
0.0
 11
-423.806648
 21
-582.996
 31
0.0
  0
TEXT
  5
57
  8
SIZE
  6
CONTINUOUS
 62
    30
 10
-443.802507
 20
-370.552753
 30
0.0
 40
64.0
  1
593
 50
89.998884
 41
0.9
 72
     1
 11
-443.801065
 21
-296.49561
 31
0.0
  0
POINT
  5
58
  8
DEFPOINTS
  6
CONTINUOUS
 62
     7
 10
-218.499903
 20
0.0
 30
0.0
  0
POINT
  5
59
  8
DEFPOINTS
  6
CONTINUOUS
 62
     7
 10
-248.507502
 20
-592.999415
 30
0.0
  0
POINT
  5
5A
  8
DEFPOINTS
  6
CONTINUOUS
 62
     7
 10
-423.806843
 20
-592.996
 30
0.0
  0
LINE
  5
5B
  8
DETAIL
  6
CONTINUOUS
 62
     5
 10
-266.5
 20
-580.1237
 30
0.0
 11
-266.5
 21
-611.8737
 31
0.0
  0
LINE
  5
5C
  8
DETAIL
  6
CONTINUOUS
 62
     5
 10
-241.507251
 20
-580.1286
 30
0.0
 11
-241.50787
 21
-611.8737
 31
0.0
  0
LINE
  5
5D
  8
NOTE
  6
CONTINUOUS
 62
     4
 10
-228.507112
 20
-572.999805
 30
0.0
 11
-228.507892
 21
-612.999805
 31
0.0
  0
LINE
  5
5E
  8
NOTE
  6
CONTINUOUS
 62
     4
 10
-248.507502
 20
-592.999415
 30
0.0
 11
-208.507502
 21
-593.000195
 31
0.0
  0
LINE
  5
5F
  8
NOTE
  6
CONTINUOUS
 62
     4
 10
-266.5
 20
-575.999065
 30
0.0
 11
-266.5
 21
-615.999065
 31
0.0
  0
LINE
  5
60
  8
NOTE
  6
CONTINUOUS
 62
     4
 10
-286.50756
 20
-596.0
 30
0.0
 11
-246.50756
 21
-596.0
 31
0.0
  0
LINE
  5
61
  8
DETAIL
  6
CONTINUOUS
 62
     5
 10
-228.507378
 20
-585.0602
 30
0.0
 11
-228.507626
 21
-600.9402
 31
0.0
  0
LINE
  5
62
  8
DETAIL
  6
CONTINUOUS
 62
     5
 10
-184.507626
 20
-600.9402
 30
0.0
 11
-228.507626
 21
-600.9402
 31
0.0
  0
LINE
  5
63
  8
DETAIL
  6
CONTINUOUS
 62
     5
 10
-184.507808
 20
-611.8737
 30
0.0
 11
-266.5
 21
-611.8737
 31
0.0
  0
LINE
  5
64
  8
DETAIL
  6
CONTINUOUS
 62
     5
 10
-184.507378
 20
-585.0602
 30
0.0
 11
-228.507378
 21
-585.0602
 31
0.0
  0
LINE
  5
65
  8
DETAIL
  6
CONTINUOUS
 62
     5
 10
-218.507378
 20
-585.0602
 30
0.0
 11
-218.507626
 21
-600.9402
 31
0.0
  0
LINE
  5
66
  8
DETAIL
  6
CONTINUOUS
 62
     5
 10
18.412321
 20
-704.582484
 30
0.0
 11
-10.520503
 21
-704.58192
 31
0.0
  0
LINE
  5
67
  8
DETAIL
  6
CONTINUOUS
 62
     5
 10
-10.520503
 20
-704.58192
 30
0.0
 11
-81.941723
 21
-679.998394
 31
0.0
  0
LINE
  5
68
  8
DETAIL
  6
CONTINUOUS
 62
     5
 10
-184.507313
 20
-580.1237
 30
0.0
 11
-266.5
 21
-580.1237
 31
0.0
  0
TEXT
  5
69
  8
NOTE
  6
CONTINUOUS
 62
     4
 10
-874.36734
 20
58.486622
 30
0.0
 40
64.0
  1
RL %%C 15.88
 50
359.998889
 41
0.9
 72
     2
 11
-429.475912
 21
58.477995
 31
0.0
  0
LINE
  5
6A
  8
NOTE
  6
CONTINUOUS
 62
     4
 10
-363.147763
 20
247.36406
 30
0.0
 11
-1099.446887
 21
247.3751
 31
0.0
  0
TEXT
  5
6B
  8
NOTE
  6
CONTINUOUS
 62
     4
 10
-1089.023187
 20
258.277746
 30
0.0
 40
64.0
  1
AH 2-U切穴 %%C 12
 50
359.998889
 41
0.9
 72
     2
 11
-405.503187
 21
258.264492
 31
0.0
  0
TEXT
  5
6C
  8
NOTE
  6
CONTINUOUS
 62
     4
 10
-931.688884
 20
-716.027509
 30
0.0
 40
64.0
  1
RG %%C 31.75
 50
359.998889
 41
0.9
 72
     2
 11
-475.826027
 21
-716.036348
 31
0.0
  0
LINE
  5
6D
  8
DETAIL
  6
CONTINUOUS
 62
     5
 10
-184.499903
 20
-0.000663
 30
0.0
 11
-232.499903
 21
0.000273
 31
0.0
  0
CIRCLE
  5
6E
  8
FIX
  6
CONTINUOUS
 62
    11
 10
-218.499903
 20
0.0
 30
0.0
 40
20.0
  0
LINE
  5
6F
  8
NOTE
  6
CONTINUOUS
 62
     4
 10
-218.500292
 20
-20.0
 30
0.0
 11
-218.499513
 21
20.0
 31
0.0
  0
LINE
  5
70
  8
NOTE
  6
CONTINUOUS
 62
     4
 10
-238.499903
 20
0.00039
 30
0.0
 11
-198.499903
 21
-0.00039
 31
0.0
  0
LINE
  5
71
  8
DETAIL
  6
CONTINUOUS
 62
     5
 10
184.500097
 20
-0.007327
 30
0.0
 11
184.488073
 21
-617.08727
 31
0.0
  0
LINE
  5
72
  8
DETAIL
  6
CONTINUOUS
 62
     5
 10
260.490004
 20
-517.992215
 30
0.0
 11
260.498578
 21
-78.0
 31
0.0
  0
LINE
  5
73
  8
DETAIL
  6
CONTINUOUS
 62
     5
 10
192.492048
 20
-617.08727
 30
0.0
 11
-184.511635
 21
-617.08727
 31
0.0
  0
LINE
  5
74
  8
DETAIL
  6
CONTINUOUS
 62
     5
 10
192.492048
 20
-617.08727
 30
0.0
 11
192.490822
 21
-680.003488
 31
0.0
  0
LINE
  5
75
  8
DETAIL
  6
CONTINUOUS
 62
     5
 10
184.500097
 20
-0.007327
 30
0.0
 11
261.500097
 21
-0.008827
 31
0.0
  0
CIRCLE
  5
76
  8
FIX
  6
CONTINUOUS
 62
    11
 10
241.500097
 20
-0.008437
 30
0.0
 40
20.0
  0
LINE
  5
77
  8
NOTE
  6
CONTINUOUS
 62
     4
 10
241.499708
 20
-20.008437
 30
0.0
 11
241.500487
 21
19.991563
 31
0.0
  0
LINE
  5
78
  8
NOTE
  6
CONTINUOUS
 62
     4
 10
221.500097
 20
-0.008048
 30
0.0
 11
261.500097
 21
-0.008827
 31
0.0
  0
POINT
  5
79
  8
ARRANGE
  6
CONTINUOUS
 62
     1
 10
0.0
 20
0.0
 30
0.0
  0
CIRCLE
  5
7A
  8
ARRANGE
  6
CONTINUOUS
 62
     1
 10
0.0
 20
0.0
 30
0.0
 40
40.0
  0
LINE
  5
7B
  8
DETAIL
  6
CONTINUOUS
 62
     5
 10
184.493538
 20
-336.648185
 30
0.0
 11
260.493538
 21
-336.648185
 31
0.0
  0
LINE
  5
7C
  8
DETAIL
  6
CONTINUOUS
 62
     5
 10
184.492836
 20
-372.648185
 30
0.0
 11
260.492836
 21
-372.648185
 31
0.0
  0
LINE
  5
7D
  8
DETAIL
  6
CONTINUOUS
 62
     5
 10
184.494239
 20
-300.648185
 30
0.0
 11
260.494239
 21
-300.648185
 31
0.0
  0
LINE
  5
7E
  8
DETAIL
  6
CONTINUOUS
 62
     5
 10
184.494941
 20
-264.648185
 30
0.0
 11
260.494941
 21
-264.648185
 31
0.0
  0
LINE
  5
7F
  8
DETAIL
  6
CONTINUOUS
 62
     5
 10
184.495642
 20
-228.648185
 30
0.0
 11
260.495642
 21
-228.648185
 31
0.0
  0
LINE
  5
80
  8
DETAIL
  6
CONTINUOUS
 62
     5
 10
184.496344
 20
-192.648185
 30
0.0
 11
260.496344
 21
-192.648185
 31
0.0
  0
LINE
  5
81
  8
DETAIL
  6
CONTINUOUS
 62
     5
 10
184.497695
 20
-123.304155
 30
0.0
 11
260.497695
 21
-123.304155
 31
0.0
  0
LINE
  5
82
  8
DETAIL
  6
CONTINUOUS
 62
     5
 10
184.496993
 20
-159.304155
 30
0.0
 11
260.496993
 21
-159.304155
 31
0.0
  0
LINE
  5
83
  8
NOTE
  6
CONTINUOUS
 62
     4
 10
-218.499903
 20
0.0
 30
0.0
 11
-363.147763
 21
247.36406
 31
0.0
  0
POLYLINE
  5
84
  8
NOTE
  6
CONTINUOUS
 62
     4
 66
     1
 10
0.0
 20
0.0
 30
0.0
  0
VERTEX
  5
85
  8
NOTE
  6
CONTINUOUS
 62
     4
 10
-248.034449
 20
26.976111
 30
0.0
  0
VERTEX
  5
86
  8
NOTE
  6
CONTINUOUS
 62
     4
 10
-218.499903
 20
0.0
 30
0.0
  0
VERTEX
  5
87
  8
NOTE
  6
CONTINUOUS
 62
     4
 10
-230.589515
 20
38.12927
 30
0.0
  0
SEQEND
  5
88
  8
NOTE
  6
CONTINUOUS
 62
     4
  0
LINE
  5
89
  8
DETAIL
  6
CONTINUOUS
 62
     5
 10
184.498552
 20
-78.0
 30
0.0
 11
260.498552
 21
-78.0
 31
0.0
  0
LINE
  5
8A
  8
NOTE
  6
CONTINUOUS
 62
     4
 10
4.489932
 20
-728.403831
 30
0.0
 11
305.082726
 21
-977.642719
 31
0.0
  0
TEXT
  5
8B
  8
NOTE
  6
CONTINUOUS
 62
     4
 10
316.097653
 20
-965.398474
 30
0.0
 40
64.0
  1
D %%C 34
 41
0.9
  0
LINE
  5
8C
  8
NOTE
  6
CONTINUOUS
 62
     4
 10
304.582726
 20
-977.642719
 30
0.0
 11
596.292074
 21
-977.642719
 31
0.0
  0
POLYLINE
  5
8D
  8
NOTE
  6
CONTINUOUS
 62
     4
 66
     1
 10
0.0
 20
0.0
 30
0.0
  0
VERTEX
  5
8E
  8
NOTE
  6
CONTINUOUS
 62
     4
 10
40.840759
 20
-745.095666
 30
0.0
  0
VERTEX
  5
8F
  8
NOTE
  6
CONTINUOUS
 62
     4
 10
4.489932
 20
-728.403831
 30
0.0
  0
VERTEX
  5
90
  8
NOTE
  6
CONTINUOUS
 62
     4
 10
27.624754
 20
-761.034798
 30
0.0
  0
SEQEND
  5
91
  8
NOTE
  6
CONTINUOUS
 62
     4
  0
LINE
  5
92
  8
NOTE
  6
CONTINUOUS
 62
     4
 10
-266.5
 20
-596.0
 30
0.0
 11
-444.885615
 21
-729.478996
 31
0.0
  0
POLYLINE
  5
93
  8
NOTE
  6
CONTINUOUS
 62
     4
 66
     1
 10
0.0
 20
0.0
 30
0.0
  0
VERTEX
  5
94
  8
NOTE
  6
CONTINUOUS
 62
     4
 10
-291.239757
 20
-627.436597
 30
0.0
  0
VERTEX
  5
95
  8
NOTE
  6
CONTINUOUS
 62
     4
 10
-266.5
 20
-596.0
 30
0.0
  0
VERTEX
  5
96
  8
NOTE
  6
CONTINUOUS
 62
     4
 10
-303.645037
 20
-610.858669
 30
0.0
  0
SEQEND
  5
97
  8
NOTE
  6
CONTINUOUS
 62
     4
  0
LINE
  5
98
  8
NOTE
  6
CONTINUOUS
 62
     4
 10
-444.885615
 20
-730.478996
 30
0.0
 11
-940.948652
 21
-730.47142
 31
0.0
  0
POLYLINE
  5
99
  8
NOTE
  6
CONTINUOUS
 62
     4
 66
     1
 10
0.0
 20
0.0
 30
0.0
  0
VERTEX
  5
9A
  8
NOTE
  6
CONTINUOUS
 62
     4
 10
-253.18726
 20
-561.521089
 30
0.0
  0
VERTEX
  5
9B
  8
NOTE
  6
CONTINUOUS
 62
     4
 10
-228.507502
 20
-592.999805
 30
0.0
  0
VERTEX
  5
9C
  8
NOTE
  6
CONTINUOUS
 62
     4
 10
-234.141441
 20
-553.398559
 30
0.0
  0
SEQEND
  5
9D
  8
NOTE
  6
CONTINUOUS
 62
     4
  0
LINE
  5
9E
  8
NOTE
  6
CONTINUOUS
 62
     4
 10
-228.507502
 20
-592.999805
 30
0.0
 11
-403.762611
 21
38.577743
 31
0.0
  0
LINE
  5
9F
  8
NOTE
  6
CONTINUOUS
 62
     4
 10
-403.762611
 20
38.577743
 30
0.0
 11
-835.715685
 21
38.58434
 31
0.0
  0
LINE
  5
A0
  8
DETAIL
  6
CONTINUOUS
 62
     5
 10
192.491368
 20
-651.007327
 30
0.0
 11
-184.508632
 21
-651.007327
 31
0.0
  0
LINE
  5
A1
  8
OUTLINE
  6
CONTINUOUS
 62
     3
 10
192.492048
 20
-617.08727
 30
0.0
 11
192.490822
 21
-680.003488
 31
0.0
  0
LINE
  5
A2
  8
OUTLINE
  6
CONTINUOUS
 62
     3
 10
-184.509178
 20
-679.996405
 30
0.0
 11
192.490822
 21
-680.003751
 31
0.0
  0
LINE
  5
A3
  8
OUTLINE
  6
CONTINUOUS
 62
     3
 10
-184.499903
 20
-0.000663
 30
0.0
 11
-184.513153
 21
-679.996405
 31
0.0
  0
LINE
  5
A4
  8
OUTLINE
  6
CONTINUOUS
 62
     3
 10
192.49234
 20
-617.08727
 30
0.0
 11
-184.50766
 21
-617.08727
 31
0.0
  0
LINE
  5
A5
  8
OUTLINE
  6
CONTINUOUS
 62
     3
 10
-184.500097
 20
-10.000399
 30
0.0
 11
184.499902
 21
-10.00759
 31
0.0
  0
LINE
  5
A6
  8
OUTLINE
  6
CONTINUOUS
 62
     3
 10
-184.499903
 20
-0.000663
 30
0.0
 11
-232.499903
 21
0.000273
 31
0.0
  0
LINE
  5
A7
  8
OUTLINE
  6
CONTINUOUS
 62
     3
 10
184.500097
 20
-0.007327
 30
0.0
 11
261.500097
 21
-0.008827
 31
0.0
  0
LINE
  5
A8
  8
OUTLINE
  6
CONTINUOUS
 62
     3
 10
184.500097
 20
-0.007327
 30
0.0
 11
184.488073
 21
-617.08727
 31
0.0
  0
LINE
  5
A9
  8
NOTE
  6
CONTINUOUS
 62
     4
 10
459.597653
 20
272.837419
 30
0.0
 11
938.645407
 21
272.837419
 31
0.0
  0
TEXT
  5
AA
  8
NOTE
  6
CONTINUOUS
 62
     4
 10
483.664798
 20
291.721501
 30
0.0
 40
64.0
  1
AH 2-%%C 12
 41
0.9
  0
POLYLINE
  5
AB
  8
NOTE
  6
CONTINUOUS
 62
     4
 66
     1
 10
0.0
 20
0.0
 30
0.0
  0
VERTEX
  5
AC
  8
NOTE
  6
CONTINUOUS
 62
     4
 10
260.746685
 20
35.056771
 30
0.0
  0
VERTEX
  5
AD
  8
NOTE
  6
CONTINUOUS
 62
     4
 10
241.500097
 20
-0.008437
 30
0.0
  0
VERTEX
  5
AE
  8
NOTE
  6
CONTINUOUS
 62
     4
 10
275.700735
 20
20.73563
 30
0.0
  0
SEQEND
  5
AF
  8
NOTE
  6
CONTINUOUS
 62
     4
  0
LINE
  5
B0
  8
NOTE
  6
CONTINUOUS
 62
     4
 10
241.500097
 20
-0.008437
 30
0.0
 11
459.597653
 21
272.837419
 31
0.0
  0
LINE
  5
B1
  8
OUTLINE
  6
CONTINUOUS
 62
     3
 10
184.498578
 20
-78.0
 30
0.0
 11
260.498578
 21
-78.0
 31
0.0
  0
LINE
  5
B2
  8
OUTLINE
  6
CONTINUOUS
 62
     3
 10
260.498578
 20
-78.0
 30
0.0
 11
260.490004
 21
-517.992215
 31
0.0
  0
LINE
  5
B3
  8
OUTLINE
  6
CONTINUOUS
 62
     3
 10
184.487393
 20
-652.006323
 30
0.0
 11
184.487393
 21
-652.007327
 31
0.0
  0
LINE
  5
B4
  8
OUTLINE
  6
CONTINUOUS
 62
     3
 10
184.490004
 20
-517.992215
 30
0.0
 11
260.490004
 21
-517.992215
 31
0.0
  0
LINE
  5
B5
  8
DETAIL
  6
CONTINUOUS
 62
     5
 10
184.490004
 20
-517.992215
 30
0.0
 11
260.490004
 21
-517.992215
 31
0.0
  0
LINE
  5
B6
  8
DETAIL
  6
CONTINUOUS
 62
     5
 10
184.492888
 20
-405.992215
 30
0.0
 11
260.492888
 21
-405.992215
 31
0.0
  0
LINE
  5
B7
  8
DETAIL
  6
CONTINUOUS
 62
     5
 10
184.491485
 20
-441.992215
 30
0.0
 11
260.491485
 21
-441.992215
 31
0.0
  0
LINE
  5
B8
  8
DETAIL
  6
CONTINUOUS
 62
     5
 10
184.490783
 20
-477.992215
 30
0.0
 11
260.490784
 21
-477.992215
 31
0.0
  0
LINE
  5
B9
  8
SIZE
  6
CONTINUOUS
 62
    30
 10
-228.507626
 20
-619.350195
 30
0.0
 11
-228.507626
 21
-838.009106
 31
0.0
  0
LINE
  5
BA
  8
SIZE
  6
CONTINUOUS
 62
    30
 10
-184.513153
 20
-699.996405
 30
0.0
 11
-184.513153
 21
-838.009106
 31
0.0
  0
LINE
  5
BB
  8
SIZE
  6
CONTINUOUS
 62
    30
 10
-238.507626
 20
-808.009106
 30
0.0
 11
-248.507626
 21
-808.009106
 31
0.0
  0
LINE
  5
BC
  8
SIZE
  6
CONTINUOUS
 62
    30
 10
-174.513153
 20
-808.009106
 30
0.0
 11
-28.513153
 21
-808.009106
 31
0.0
  0
LINE
  5
BD
  8
SIZE
  6
CONTINUOUS
 62
    30
 10
-228.507626
 20
-808.009106
 30
0.0
 11
-184.513153
 21
-808.009106
 31
0.0
  0
CIRCLE
  5
BE
  8
SIZE
  6
CONTINUOUS
 62
    30
 10
-228.507626
 20
-808.009106
 30
0.0
 40
5.0
  0
LINE
  5
BF
  8
SIZE
  6
CONTINUOUS
 62
    30
 10
-233.507626
 20
-808.009106
 30
0.0
 11
-238.507626
 21
-808.009106
 31
0.0
  0
CIRCLE
  5
C0
  8
SIZE
  6
CONTINUOUS
 62
    30
 10
-184.513153
 20
-808.009106
 30
0.0
 40
5.0
  0
LINE
  5
C1
  8
SIZE
  6
CONTINUOUS
 62
    30
 10
-179.513153
 20
-808.009106
 30
0.0
 11
-174.513153
 21
-808.009106
 31
0.0
  0
TEXT
  5
C2
  8
SIZE
  6
CONTINUOUS
 62
    30
 10
-144.513153
 20
-788.009106
 30
0.0
 40
64.0
  1
44
 41
0.9
 72
     1
 11
-96.513153
 21
-788.009106
 31
0.0
  0
POINT
  5
C3
  8
DEFPOINTS
  6
CONTINUOUS
 62
     7
 10
-228.507626
 20
-599.350195
 30
0.0
  0
POINT
  5
C4
  8
DEFPOINTS
  6
CONTINUOUS
 62
     7
 10
-184.513153
 20
-679.996405
 30
0.0
  0
POINT
  5
C5
  8
DEFPOINTS
  6
CONTINUOUS
 62
     7
 10
-184.513153
 20
-808.009106
 30
0.0
  0
LINE
  5
C6
  8
SIZE
  6
CONTINUOUS
 62
    30
 10
-266.5
 20
-631.898675
 30
0.0
 11
-266.5
 21
-952.37216
 31
0.0
  0
LINE
  5
C7
  8
SIZE
  6
CONTINUOUS
 62
    30
 10
-184.509178
 20
-699.996405
 30
0.0
 11
-184.509178
 21
-952.37216
 31
0.0
  0
LINE
  5
C8
  8
SIZE
  6
CONTINUOUS
 62
    30
 10
-194.509178
 20
-922.37216
 30
0.0
 11
-256.507808
 21
-922.37216
 31
0.0
  0
LINE
  5
C9
  8
SIZE
  6
CONTINUOUS
 62
    30
 10
-266.5
 20
-922.37216
 30
0.0
 11
-409.764951
 21
-922.37216
 31
0.0
  0
CIRCLE
  5
CA
  8
SIZE
  6
CONTINUOUS
 62
    30
 10
-184.509178
 20
-922.37216
 30
0.0
 40
5.0
  0
LINE
  5
CB
  8
SIZE
  6
CONTINUOUS
 62
    30
 10
-189.509178
 20
-922.37216
 30
0.0
 11
-194.509178
 21
-922.37216
 31
0.0
  0
CIRCLE
  5
CC
  8
SIZE
  6
CONTINUOUS
 62
    30
 10
-266.5
 20
-922.37216
 30
0.0
 40
5.0
  0
LINE
  5
CD
  8
SIZE
  6
CONTINUOUS
 62
    30
 10
-261.507808
 20
-922.37216
 30
0.0
 11
-256.507808
 21
-922.37216
 31
0.0
  0
TEXT
  5
CE
  8
SIZE
  6
CONTINUOUS
 62
    30
 10
-389.76495
 20
-902.37216
 30
0.0
 40
64.0
  1
82
 41
0.9
 72
     1
 11
-343.136379
 21
-902.37216
 31
0.0
  0
POINT
  5
CF
  8
DEFPOINTS
  6
CONTINUOUS
 62
     7
 10
-266.507808
 20
-611.898675
 30
0.0
  0
POINT
  5
D0
  8
DEFPOINTS
  6
CONTINUOUS
 62
     7
 10
-184.509178
 20
-679.996405
 30
0.0
  0
POINT
  5
D1
  8
DEFPOINTS
  6
CONTINUOUS
 62
     7
 10
-184.509178
 20
-922.37216
 30
0.0
  0
LINE
  5
D2
  8
SIZE
  6
CONTINUOUS
 62
    30
 10
212.490822
 20
-680.003488
 30
0.0
 11
454.842524
 21
-680.003488
 31
0.0
  0
LINE
  5
D3
  8
SIZE
  6
CONTINUOUS
 62
    30
 10
38.422725
 20
-730.000271
 30
0.0
 11
454.842524
 21
-730.000271
 31
0.0
  0
LINE
  5
D4
  8
SIZE
  6
CONTINUOUS
 62
    30
 10
424.842524
 20
-670.003488
 30
0.0
 11
424.842524
 21
-660.003488
 31
0.0
  0
LINE
  5
D5
  8
SIZE
  6
CONTINUOUS
 62
    30
 10
424.842524
 20
-740.000271
 30
0.0
 11
424.842524
 21
-883.257414
 31
0.0
  0
LINE
  5
D6
  8
SIZE
  6
CONTINUOUS
 62
    30
 10
424.842524
 20
-680.003488
 30
0.0
 11
424.842524
 21
-730.000271
 31
0.0
  0
CIRCLE
  5
D7
  8
SIZE
  6
CONTINUOUS
 62
    30
 10
424.842524
 20
-680.003488
 30
0.0
 40
5.0
  0
LINE
  5
D8
  8
SIZE
  6
CONTINUOUS
 62
    30
 10
424.842524
 20
-675.003488
 30
0.0
 11
424.842524
 21
-670.003488
 31
0.0
  0
CIRCLE
  5
D9
  8
SIZE
  6
CONTINUOUS
 62
    30
 10
424.842524
 20
-730.000271
 30
0.0
 40
5.0
  0
LINE
  5
DA
  8
SIZE
  6
CONTINUOUS
 62
    30
 10
424.842524
 20
-735.000271
 30
0.0
 11
424.842524
 21
-740.000271
 31
0.0
  0
TEXT
  5
DB
  8
SIZE
  6
CONTINUOUS
 62
    30
 10
404.842524
 20
-863.257414
 30
0.0
 40
64.0
  1
50
 50
90.0
 41
0.9
 72
     1
 11
404.842524
 21
-816.628843
 31
0.0
  0
POINT
  5
DC
  8
DEFPOINTS
  6
CONTINUOUS
 62
     7
 10
192.490822
 20
-680.003488
 30
0.0
  0
POINT
  5
DD
  8
DEFPOINTS
  6
CONTINUOUS
 62
     7
 10
18.422725
 20
-730.000271
 30
0.0
  0
POINT
  5
DE
  8
DEFPOINTS
  6
CONTINUOUS
 62
     7
 10
424.842524
 20
-730.000271
 30
0.0
  0
LINE
  5
DF
  8
SIZE
  6
CONTINUOUS
 62
    30
 10
-184.499903
 20
19.999337
 30
0.0
 11
-184.499903
 21
153.000618
 31
0.0
  0
LINE
  5
E0
  8
SIZE
  6
CONTINUOUS
 62
    30
 10
184.500097
 20
19.992673
 30
0.0
 11
184.500097
 21
153.000618
 31
0.0
  0
LINE
  5
E1
  8
SIZE
  6
CONTINUOUS
 62
    30
 10
-174.499903
 20
123.000618
 30
0.0
 11
174.500097
 21
123.000618
 31
0.0
  0
CIRCLE
  5
E2
  8
SIZE
  6
CONTINUOUS
 62
    30
 10
-184.499903
 20
123.000618
 30
0.0
 40
5.0
  0
LINE
  5
E3
  8
SIZE
  6
CONTINUOUS
 62
    30
 10
-179.499903
 20
123.000618
 30
0.0
 11
-174.499903
 21
123.000618
 31
0.0
  0
CIRCLE
  5
E4
  8
SIZE
  6
CONTINUOUS
 62
    30
 10
184.500097
 20
123.000618
 30
0.0
 40
5.0
  0
LINE
  5
E5
  8
SIZE
  6
CONTINUOUS
 62
    30
 10
179.500097
 20
123.000618
 30
0.0
 11
174.500097
 21
123.000618
 31
0.0
  0
TEXT
  5
E6
  8
SIZE
  6
CONTINUOUS
 62
    30
 10
-72.685617
 20
143.000618
 30
0.0
 40
64.0
  1
369
 41
0.9
 72
     1
 11
0.000097
 21
143.000618
 31
0.0
  0
POINT
  5
E7
  8
DEFPOINTS
  6
CONTINUOUS
 62
     7
 10
-184.499903
 20
-0.000663
 30
0.0
  0
POINT
  5
E8
  8
DEFPOINTS
  6
CONTINUOUS
 62
     7
 10
184.500097
 20
-0.007327
 30
0.0
  0
POINT
  5
E9
  8
DEFPOINTS
  6
CONTINUOUS
 62
     7
 10
184.500097
 20
123.000618
 30
0.0
  0
LINE
  5
EA
  8
SIZE
  6
CONTINUOUS
 62
    30
 10
184.500097
 20
19.992673
 30
0.0
 11
184.500097
 21
153.02106
 31
0.0
  0
LINE
  5
EB
  8
SIZE
  6
CONTINUOUS
 62
    30
 10
241.500487
 20
39.991563
 30
0.0
 11
241.500487
 21
153.02106
 31
0.0
  0
LINE
  5
EC
  8
SIZE
  6
CONTINUOUS
 62
    30
 10
174.500097
 20
123.02106
 30
0.0
 11
164.500097
 21
123.02106
 31
0.0
  0
LINE
  5
ED
  8
SIZE
  6
CONTINUOUS
 62
    30
 10
251.500487
 20
123.02106
 30
0.0
 11
261.500487
 21
123.02106
 31
0.0
  0
TEXT
  5
EE
  8
SIZE
  6
CONTINUOUS
 62
    30
 10
138.768686
 20
167.755562
 30
0.0
 40
64.0
  1
57
 41
0.9
 72
     1
 11
185.397257
 21
167.755562
 31
0.0
  0
LINE
  5
EF
  8
SIZE
  6
CONTINUOUS
 62
    30
 10
184.500097
 20
123.02106
 30
0.0
 11
241.500487
 21
123.02106
 31
0.0
  0
CIRCLE
  5
F0
  8
SIZE
  6
CONTINUOUS
 62
    30
 10
184.500097
 20
123.02106
 30
0.0
 40
5.0
  0
LINE
  5
F1
  8
SIZE
  6
CONTINUOUS
 62
    30
 10
179.500097
 20
123.02106
 30
0.0
 11
174.500097
 21
123.02106
 31
0.0
  0
CIRCLE
  5
F2
  8
SIZE
  6
CONTINUOUS
 62
    30
 10
241.500487
 20
123.02106
 30
0.0
 40
5.0
  0
LINE
  5
F3
  8
SIZE
  6
CONTINUOUS
 62
    30
 10
246.500487
 20
123.02106
 30
0.0
 11
251.500487
 21
123.02106
 31
0.0
  0
POINT
  5
F4
  8
DEFPOINTS
  6
CONTINUOUS
 62
     7
 10
184.500097
 20
-0.007327
 30
0.0
  0
POINT
  5
F5
  8
DEFPOINTS
  6
CONTINUOUS
 62
     7
 10
241.500487
 20
19.991563
 30
0.0
  0
POINT
  5
F6
  8
DEFPOINTS
  6
CONTINUOUS
 62
     7
 10
241.500487
 20
123.02106
 30
0.0
  0
LINE
  5
F7
  8
SIZE
  6
CONTINUOUS
 62
    30
 10
-218.499513
 20
40.0
 30
0.0
 11
-218.499513
 21
287.578822
 31
0.0
  0
LINE
  5
F8
  8
SIZE
  6
CONTINUOUS
 62
    30
 10
241.500487
 20
39.991563
 30
0.0
 11
241.500487
 21
287.578822
 31
0.0
  0
LINE
  5
F9
  8
SIZE
  6
CONTINUOUS
 62
    30
 10
-208.499513
 20
257.578822
 30
0.0
 11
231.500487
 21
257.578822
 31
0.0
  0
CIRCLE
  5
FA
  8
SIZE
  6
CONTINUOUS
 62
    30
 10
-218.499513
 20
257.578822
 30
0.0
 40
5.0
  0
LINE
  5
FB
  8
SIZE
  6
CONTINUOUS
 62
    30
 10
-213.499513
 20
257.578822
 30
0.0
 11
-208.499513
 21
257.578822
 31
0.0
  0
CIRCLE
  5
FC
  8
SIZE
  6
CONTINUOUS
 62
    30
 10
241.500487
 20
257.578822
 30
0.0
 40
5.0
  0
LINE
  5
FD
  8
SIZE
  6
CONTINUOUS
 62
    30
 10
236.500487
 20
257.578822
 30
0.0
 11
231.500487
 21
257.578822
 31
0.0
  0
TEXT
  5
FE
  8
SIZE
  6
CONTINUOUS
 62
    30
 10
-62.556656
 20
277.578822
 30
0.0
 40
64.0
  1
460
 41
0.9
 72
     1
 11
11.500487
 21
277.578822
 31
0.0
  0
POINT
  5
FF
  8
DEFPOINTS
  6
CONTINUOUS
 62
     7
 10
-218.499513
 20
20.0
 30
0.0
  0
POINT
  5
100
  8
DEFPOINTS
  6
CONTINUOUS
 62
     7
 10
241.500487
 20
19.991563
 30
0.0
  0
POINT
  5
101
  8
DEFPOINTS
  6
CONTINUOUS
 62
     7
 10
241.500487
 20
257.578822
 30
0.0
  0
LINE
  5
102
  8
SIZE
  6
CONTINUOUS
 62
    30
 10
-232.499903
 20
20.000273
 30
0.0
 11
-232.499903
 21
401.347069
 31
0.0
  0
LINE
  5
103
  8
SIZE
  6
CONTINUOUS
 62
    30
 10
261.500097
 20
19.991173
 30
0.0
 11
261.500097
 21
401.347069
 31
0.0
  0
LINE
  5
104
  8
SIZE
  6
CONTINUOUS
 62
    30
 10
-222.499903
 20
371.347069
 30
0.0
 11
251.500097
 21
371.347069
 31
0.0
  0
CIRCLE
  5
105
  8
SIZE
  6
CONTINUOUS
 62
    30
 10
-232.499903
 20
371.347069
 30
0.0
 40
5.0
  0
LINE
  5
106
  8
SIZE
  6
CONTINUOUS
 62
    30
 10
-227.499903
 20
371.347069
 30
0.0
 11
-222.499903
 21
371.347069
 31
0.0
  0
CIRCLE
  5
107
  8
SIZE
  6
CONTINUOUS
 62
    30
 10
261.500097
 20
371.347069
 30
0.0
 40
5.0
  0
LINE
  5
108
  8
SIZE
  6
CONTINUOUS
 62
    30
 10
256.500097
 20
371.347069
 30
0.0
 11
251.500097
 21
371.347069
 31
0.0
  0
TEXT
  5
109
  8
SIZE
  6
CONTINUOUS
 62
    30
 10
-60.928474
 20
391.347069
 30
0.0
 40
64.0
  1
494
 41
0.9
 72
     1
 11
14.500097
 21
391.347069
 31
0.0
  0
POINT
  5
10A
  8
DEFPOINTS
  6
CONTINUOUS
 62
     7
 10
-232.499903
 20
0.000273
 30
0.0
  0
POINT
  5
10B
  8
DEFPOINTS
  6
CONTINUOUS
 62
     7
 10
261.500097
 20
-0.008827
 30
0.0
  0
POINT
  5
10C
  8
DEFPOINTS
  6
CONTINUOUS
 62
     7
 10
261.500097
 20
371.347069
 30
0.0
  0
LINE
  5
10D
  8
SIZE
  6
CONTINUOUS
 62
    30
 10
241.500487
 20
39.991563
 30
0.0
 11
241.500487
 21
287.188806
 31
0.0
  0
LINE
  5
10E
  8
SIZE
  6
CONTINUOUS
 62
    30
 10
261.500097
 20
19.991173
 30
0.0
 11
261.500097
 21
287.188806
 31
0.0
  0
LINE
  5
10F
  8
SIZE
  6
CONTINUOUS
 62
    30
 10
231.500487
 20
257.188806
 30
0.0
 11
221.500487
 21
257.188806
 31
0.0
  0
LINE
  5
110
  8
SIZE
  6
CONTINUOUS
 62
    30
 10
271.500097
 20
257.188806
 30
0.0
 11
414.75724
 21
257.188806
 31
0.0
  0
LINE
  5
111
  8
SIZE
  6
CONTINUOUS
 62
    30
 10
241.500487
 20
257.188806
 30
0.0
 11
261.500097
 21
257.188806
 31
0.0
  0
CIRCLE
  5
112
  8
SIZE
  6
CONTINUOUS
 62
    30
 10
241.500487
 20
257.188806
 30
0.0
 40
5.0
  0
LINE
  5
113
  8
SIZE
  6
CONTINUOUS
 62
    30
 10
236.500487
 20
257.188806
 30
0.0
 11
231.500487
 21
257.188806
 31
0.0
  0
CIRCLE
  5
114
  8
SIZE
  6
CONTINUOUS
 62
    30
 10
261.500097
 20
257.188806
 30
0.0
 40
5.0
  0
LINE
  5
115
  8
SIZE
  6
CONTINUOUS
 62
    30
 10
266.500097
 20
257.188806
 30
0.0
 11
271.500097
 21
257.188806
 31
0.0
  0
TEXT
  5
116
  8
SIZE
  6
CONTINUOUS
 62
    30
 10
301.500098
 20
277.188806
 30
0.0
 40
64.0
  1
20
 41
0.9
 72
     1
 11
348.128669
 21
277.188806
 31
0.0
  0
POINT
  5
117
  8
DEFPOINTS
  6
CONTINUOUS
 62
     7
 10
241.500487
 20
19.991563
 30
0.0
  0
POINT
  5
118
  8
DEFPOINTS
  6
CONTINUOUS
 62
     7
 10
261.500097
 20
-0.008827
 30
0.0
  0
POINT
  5
119
  8
DEFPOINTS
  6
CONTINUOUS
 62
     7
 10
261.500097
 20
257.188806
 30
0.0
  0
LINE
  5
11A
  8
SIZE
  6
CONTINUOUS
 62
    30
 10
212.490822
 20
-680.003488
 30
0.0
 11
454.780882
 21
-680.003488
 31
0.0
  0
LINE
  5
11B
  8
SIZE
  6
CONTINUOUS
 62
    30
 10
204.499902
 20
-10.00759
 30
0.0
 11
454.780882
 21
-10.00759
 31
0.0
  0
LINE
  5
11C
  8
SIZE
  6
CONTINUOUS
 62
    30
 10
424.780882
 20
-670.003488
 30
0.0
 11
424.780882
 21
-20.00759
 31
0.0
  0
CIRCLE
  5
11D
  8
SIZE
  6
CONTINUOUS
 62
    30
 10
424.780882
 20
-680.003488
 30
0.0
 40
5.0
  0
LINE
  5
11E
  8
SIZE
  6
CONTINUOUS
 62
    30
 10
424.780882
 20
-675.003488
 30
0.0
 11
424.780882
 21
-670.003488
 31
0.0
  0
CIRCLE
  5
11F
  8
SIZE
  6
CONTINUOUS
 62
    30
 10
424.780882
 20
-10.00759
 30
0.0
 40
5.0
  0
LINE
  5
120
  8
SIZE
  6
CONTINUOUS
 62
    30
 10
424.780882
 20
-15.00759
 30
0.0
 11
424.780882
 21
-20.00759
 31
0.0
  0
TEXT
  5
121
  8
SIZE
  6
CONTINUOUS
 62
    30
 10
404.780882
 20
-419.062682
 30
0.0
 40
64.0
  1
670
 50
90.0
 41
0.9
 72
     1
 11
404.780882
 21
-345.005539
 31
0.0
  0
POINT
  5
122
  8
DEFPOINTS
  6
CONTINUOUS
 62
     7
 10
192.490822
 20
-680.003488
 30
0.0
  0
POINT
  5
123
  8
DEFPOINTS
  6
CONTINUOUS
 62
     7
 10
184.499902
 20
-10.00759
 30
0.0
  0
POINT
  5
124
  8
DEFPOINTS
  6
CONTINUOUS
 62
     7
 10
424.780882
 20
-10.00759
 30
0.0
  0
LINE
  5
125
  8
SIZE
  6
CONTINUOUS
 62
    30
 10
204.499902
 20
-10.00759
 30
0.0
 11
454.729238
 21
-10.00759
 31
0.0
  0
LINE
  5
126
  8
SIZE
  6
CONTINUOUS
 62
    30
 10
281.500097
 20
-0.008827
 30
0.0
 11
454.729238
 21
-0.008827
 31
0.0
  0
LINE
  5
127
  8
SIZE
  6
CONTINUOUS
 62
    30
 10
424.729238
 20
-20.00759
 30
0.0
 11
424.729238
 21
-30.00759
 31
0.0
  0
LINE
  5
128
  8
SIZE
  6
CONTINUOUS
 62
    30
 10
424.729238
 20
9.991173
 30
0.0
 11
424.729238
 21
142.276887
 31
0.0
  0
LINE
  5
129
  8
SIZE
  6
CONTINUOUS
 62
    30
 10
424.729238
 20
-10.00759
 30
0.0
 11
424.729238
 21
-0.008827
 31
0.0
  0
CIRCLE
  5
12A
  8
SIZE
  6
CONTINUOUS
 62
    30
 10
424.729238
 20
-10.00759
 30
0.0
 40
5.0
  0
LINE
  5
12B
  8
SIZE
  6
CONTINUOUS
 62
    30
 10
424.729238
 20
-15.00759
 30
0.0
 11
424.729238
 21
-20.00759
 31
0.0
  0
CIRCLE
  5
12C
  8
SIZE
  6
CONTINUOUS
 62
    30
 10
424.729238
 20
-0.008827
 30
0.0
 40
5.0
  0
LINE
  5
12D
  8
SIZE
  6
CONTINUOUS
 62
    30
 10
424.729238
 20
4.991173
 30
0.0
 11
424.729238
 21
9.991173
 31
0.0
  0
TEXT
  5
12E
  8
SIZE
  6
CONTINUOUS
 62
    30
 10
404.729238
 20
39.991173
 30
0.0
 40
64.0
  1
10
 50
90.0
 41
0.9
 72
     1
 11
404.729238
 21
81.13403
 31
0.0
  0
POINT
  5
12F
  8
DEFPOINTS
  6
CONTINUOUS
 62
     7
 10
184.499902
 20
-10.00759
 30
0.0
  0
POINT
  5
130
  8
DEFPOINTS
  6
CONTINUOUS
 62
     7
 10
261.500097
 20
-0.008827
 30
0.0
  0
POINT
  5
131
  8
DEFPOINTS
  6
CONTINUOUS
 62
     7
 10
424.729238
 20
-0.008827
 30
0.0
  0
LINE
  5
132
  8
SIZE
  6
CONTINUOUS
 62
    30
 10
-184.509178
 20
-699.996405
 30
0.0
 11
-184.509178
 21
-1100.791203
 31
0.0
  0
LINE
  5
133
  8
SIZE
  6
CONTINUOUS
 62
    30
 10
192.490822
 20
-699.996405
 30
0.0
 11
192.490822
 21
-1100.791203
 31
0.0
  0
LINE
  5
134
  8
SIZE
  6
CONTINUOUS
 62
    30
 10
-174.509178
 20
-1070.791203
 30
0.0
 11
182.490822
 21
-1070.791203
 31
0.0
  0
CIRCLE
  5
135
  8
SIZE
  6
CONTINUOUS
 62
    30
 10
-184.509178
 20
-1070.791203
 30
0.0
 40
5.0
  0
LINE
  5
136
  8
SIZE
  6
CONTINUOUS
 62
    30
 10
-179.509178
 20
-1070.791203
 30
0.0
 11
-174.509178
 21
-1070.791203
 31
0.0
  0
CIRCLE
  5
137
  8
SIZE
  6
CONTINUOUS
 62
    30
 10
192.490822
 20
-1070.791203
 30
0.0
 40
5.0
  0
LINE
  5
138
  8
SIZE
  6
CONTINUOUS
 62
    30
 10
187.490822
 20
-1070.791203
 30
0.0
 11
182.490822
 21
-1070.791203
 31
0.0
  0
TEXT
  5
139
  8
SIZE
  6
CONTINUOUS
 62
    30
 10
-70.066321
 20
-1050.791203
 30
0.0
 40
64.0
  1
377
 41
0.9
 72
     1
 11
3.990822
 21
-1050.791203
 31
0.0
  0
POINT
  5
13A
  8
DEFPOINTS
  6
CONTINUOUS
 62
     7
 10
-184.509178
 20
-679.996405
 30
0.0
  0
POINT
  5
13B
  8
DEFPOINTS
  6
CONTINUOUS
 62
     7
 10
192.490822
 20
-679.996405
 30
0.0
  0
POINT
  5
13C
  8
DEFPOINTS
  6
CONTINUOUS
 62
     7
 10
192.490822
 20
-1070.791203
 30
0.0
  0
ENDSEC
  0
EOF
