  0
SECTION
  2
HEADER
  9
$ACADVER
  1
AC1009
  9
$INSBASE
 10
0.0
 20
0.0
 30
0.0
  9
$EXTMIN
 10
-1174.6215484740931
 20
-738.83054107291525
 30
-0.0000000000000053
  9
$EXTMAX
 10
1260.68117476613
 20
931.77797090236345
 30
0.0000000000000099
  9
$LIMMIN
 10
-6000.0
 20
-4500.0
  9
$LIMMAX
 10
6000.0
 20
4500.0
  9
$ORTHOMODE
 70
     0
  9
$REGENMODE
 70
     1
  9
$FILLMODE
 70
     1
  9
$QTEXTMODE
 70
     0
  9
$MIRRTEXT
 70
     0
  9
$DRAGMODE
 70
     2
  9
$LTSCALE
 40
20.0
  9
$OSMODE
 70
  3071
  9
$ATTMODE
 70
     1
  9
$TEXTSIZE
 40
64.0
  9
$TRACEWID
 40
0.05
  9
$TEXTSTYLE
  7
STANDARD
  9
$CLAYER
  8
SYMBOLLINE
  9
$CELTYPE
  6
CONTINUOUS
  9
$CECOLOR
 62
   256
  9
$DIMSCALE
 40
1.0
  9
$DIMASZ
 40
10.0
  9
$DIMEXO
 40
20.0
  9
$DIMDLI
 40
200.0
  9
$DIMRND
 40
0.0
  9
$DIMDLE
 40
0.0
  9
$DIMEXE
 40
30.0
  9
$DIMTP
 40
0.0
  9
$DIMTM
 40
0.0
  9
$DIMTXT
 40
64.0
  9
$DIMCEN
 40
0.0
  9
$DIMTSZ
 40
0.0
  9
$DIMTOL
 70
     0
  9
$DIMLIM
 70
     0
  9
$DIMTIH
 70
     0
  9
$DIMTOH
 70
     0
  9
$DIMSE1
 70
     0
  9
$DIMSE2
 70
     0
  9
$DIMTAD
 70
     1
  9
$DIMZIN
 70
     8
  9
$DIMBLK
  1

  9
$DIMASO
 70
     1
  9
$DIMSHO
 70
     0
  9
$DIMPOST
  1

  9
$DIMAPOST
  1

  9
$DIMALT
 70
     0
  9
$DIMALTD
 70
     2
  9
$DIMALTF
 40
25.399999999999999
  9
$DIMLFAC
 40
1.0
  9
$DIMTOFL
 70
     1
  9
$DIMTVP
 40
0.0
  9
$DIMTIX
 70
     1
  9
$DIMSOXD
 70
     0
  9
$DIMSAH
 70
     1
  9
$DIMBLK1
  1
DOTBLANK
  9
$DIMBLK2
  1
DOTBLANK
  9
$DIMSTYLE
  2
STANDARD
  9
$DIMCLRD
 70
     0
  9
$DIMCLRE
 70
     0
  9
$DIMCLRT
 70
     0
  9
$DIMTFAC
 40
1.0
  9
$DIMGAP
 40
0.09
  9
$LUNITS
 70
     2
  9
$LUPREC
 70
     4
  9
$SKETCHINC
 40
0.1
  9
$FILLETRAD
 40
10.0
  9
$AUNITS
 70
     1
  9
$AUPREC
 70
     3
  9
$MENU
  1
ACAD
  9
$ELEVATION
 40
0.0
  9
$PELEVATION
 40
0.0
  9
$THICKNESS
 40
0.0
  9
$LIMCHECK
 70
     0
  9
$BLIPMODE
 70
     0
  9
$CHAMFERA
 40
0.0
  9
$CHAMFERB
 40
0.0
  9
$SKPOLY
 70
     0
  9
$TDCREATE
 40
2450330.4399309959
  9
$TDUPDATE
 40
2456119.8132721758
  9
$TDINDWG
 40
1.136024294
  9
$TDUSRTIMER
 40
1.1360047454
  9
$USRTIMER
 70
     1
  9
$ANGBASE
 50
0.0
  9
$ANGDIR
 70
     0
  9
$PDMODE
 70
     3
  9
$PDSIZE
 40
-2.0
  9
$PLINEWID
 40
0.0
  9
$COORDS
 70
     1
  9
$SPLFRAME
 70
     0
  9
$SPLINETYPE
 70
     6
  9
$SPLINESEGS
 70
     8
  9
$ATTDIA
 70
     0
  9
$ATTREQ
 70
     1
  9
$HANDLING
 70
     1
  9
$HANDSEED
  5
BAA
  9
$SURFTAB1
 70
     6
  9
$SURFTAB2
 70
     6
  9
$SURFTYPE
 70
     6
  9
$SURFU
 70
     6
  9
$SURFV
 70
     6
  9
$UCSNAME
  2

  9
$UCSORG
 10
0.0
 20
0.0
 30
0.0
  9
$UCSXDIR
 10
1.0
 20
0.0
 30
0.0
  9
$UCSYDIR
 10
0.0
 20
1.0
 30
0.0
  9
$PUCSNAME
  2

  9
$PUCSORG
 10
0.0
 20
0.0
 30
0.0
  9
$PUCSXDIR
 10
1.0
 20
0.0
 30
0.0
  9
$PUCSYDIR
 10
0.0
 20
1.0
 30
0.0
  9
$USERI1
 70
     0
  9
$USERI2
 70
     0
  9
$USERI3
 70
     0
  9
$USERI4
 70
     0
  9
$USERI5
 70
     0
  9
$USERR1
 40
20.0
  9
$USERR2
 40
0.0
  9
$USERR3
 40
0.0
  9
$USERR4
 40
0.0
  9
$USERR5
 40
0.0
  9
$WORLDVIEW
 70
     1
  9
$SHADEDGE
 70
     3
  9
$SHADEDIF
 70
    70
  9
$TILEMODE
 70
     1
  9
$MAXACTVP
 70
    48
  9
$PLIMCHECK
 70
     0
  9
$PEXTMIN
 10
1.0000000000000000E+020
 20
1.0000000000000000E+020
 30
1.0000000000000000E+020
  9
$PEXTMAX
 10
-1.0000000000000000E+020
 20
-1.0000000000000000E+020
 30
-1.0000000000000000E+020
  9
$PLIMMIN
 10
0.0
 20
0.0
  9
$PLIMMAX
 10
12.0
 20
9.0
  9
$UNITMODE
 70
     0
  9
$VISRETAIN
 70
     1
  9
$PLINEGEN
 70
     0
  9
$PSLTSCALE
 70
     1
  0
ENDSEC
  0
SECTION
  2
TABLES
  0
TABLE
  2
VPORT
 70
     1
  0
VPORT
  2
*ACTIVE
 70
     0
 10
0.0
 20
0.0
 11
1.0
 21
1.0
 12
0.0000000000002274
 22
0.0
 13
0.0
 23
0.0
 14
50.0
 24
50.0
 15
100.0
 25
100.0
 16
0.0
 26
0.0
 36
1.0
 17
0.0
 27
0.0
 37
0.0
 40
9068.4410646387842
 41
1.552030456852791
 42
50.0
 43
0.0
 44
0.0
 50
0.0
 51
0.0
 71
     0
 72
  1000
 73
     1
 74
     0
 75
     0
 76
     0
 77
     0
 78
     0
  0
ENDTAB
  0
TABLE
  2
LTYPE
 70
     8
  0
LTYPE
  2
CONTINUOUS
 70
     0
  3
実線
 72
    65
 73
     0
 40
0.0
  0
LTYPE
  2
DASHDOT
 70
     0
  3
____ _ ____ _ ____ _ ____ _ ____ _ ____ _ ____
 72
    65
 73
     4
 40
5.5
 49
4.0
 49
-0.6
 49
0.3
 49
-0.6
  0
LTYPE
  2
DASHED
 70
     0
  3
_ _ _ _ _ _ _ _ _ _ _ _ _ _ _ _ _ _ _ _ _ _ _
 72
    65
 73
     2
 40
2.0
 49
1.1999999999999991
 49
-0.8
  0
LTYPE
  2
DOT
 70
     0
  3
...............................................
 72
    65
 73
     2
 40
0.8
 49
0.5
 49
-0.3
  0
LTYPE
  2
DASHDOT1
 70
     0
  3
____ _ ____ _ ____ _ ____ _ ____ _ ____ _ ____
 72
    65
 73
     4
 40
2.0
 49
1.5
 49
-0.2
 49
0.1
 49
-0.2
  0
LTYPE
  2
DIVIDE
 70
     0
  3
_____ _ _ _____ _ _ _____ _ _ _____ _ _ ____
 72
    65
 73
     6
 40
6.4000000000000004
 49
4.0
 49
-0.6
 49
0.3
 49
-0.6
 49
0.3
 49
-0.6
  0
LTYPE
  2
DIVIDE1
 70
     0
  3
_____ _ _ _____ _ _ _____ _ _ _____ _ _ ____
 72
    65
 73
     6
 40
3.2000000000000002
 49
2.0
 49
-0.3
 49
0.15
 49
-0.3
 49
0.15
 49
-0.3
  0
LTYPE
  2
HIDDEN
 70
     0
  3
_ _ _ _ _ _ _ _ _ _ _ _ _ _ _ _ _ _ _ _ _ _ _
 72
    65
 73
     2
 40
0.375
 49
0.25
 49
-0.125
  0
ENDTAB
  0
TABLE
  2
LAYER
 70
    12
  0
LAYER
  2
0
 70
     0
 62
     7
  6
CONTINUOUS
  0
LAYER
  2
SYMBOLLINE
 70
     0
 62
    15
  6
CONTINUOUS
  0
LAYER
  2
SIZE
 70
     0
 62
    30
  6
CONTINUOUS
  0
LAYER
  2
OUTLINE
 70
     0
 62
     3
  6
CONTINUOUS
  0
LAYER
  2
DETAIL
 70
     0
 62
     5
  6
CONTINUOUS
  0
LAYER
  2
BASIS
 70
     0
 62
     6
  6
CONTINUOUS
  0
LAYER
  2
NOTE
 70
     0
 62
     4
  6
CONTINUOUS
  0
LAYER
  2
DEFPOINTS
 70
     0
 62
     7
  6
CONTINUOUS
  0
LAYER
  2
FIX
 70
     0
 62
    11
  6
CONTINUOUS
  0
LAYER
  2
ARRANGE
 70
     0
 62
     1
  6
CONTINUOUS
  0
LAYER
  2
ETC
 70
     0
 62
    61
  6
CONTINUOUS
  0
LAYER
  2
SERVICESPACE
 70
     0
 62
     2
  6
CONTINUOUS
  0
ENDTAB
  0
TABLE
  2
STYLE
 70
     3
  0
STYLE
  2
STANDARD
 70
     0
 40
0.0
 41
0.9
 50
0.0
 71
     0
 42
64.0
  3
SIMPLEX
  4
BIGFONT
  0
STYLE
  2
ANNOTATIVE
 70
     0
 40
0.0
 41
1.0
 50
0.0
 71
     0
 42
0.2
  3
txt
  4

  0
STYLE
  2
STANDARD1
 70
     0
 40
0.0
 41
1.0
 50
0.0
 71
     0
 42
64.0
  3
MONOTXT
  4
BIGFONT
  0
ENDTAB
  0
TABLE
  2
VIEW
 70
     1
  0
VIEW
  2
ALL
 70
     0
 40
9000.0
 10
241.50664699999999
 20
0.0
 41
12483.01
 11
0.0
 21
0.0
 31
1.0
 12
0.0
 22
0.0
 32
0.0
 42
50.0
 43
0.0
 44
0.0
 50
0.0
 71
     0
  0
ENDTAB
  0
TABLE
  2
UCS
 70
     0
  0
ENDTAB
  0
TABLE
  2
APPID
 70
     4
  0
APPID
  2
ACAD
 70
     0
  0
APPID
  2
ACADANNOTATIVE
 70
     0
  0
APPID
  2
ACAD_MLEADERVER
 70
     0
  0
APPID
  2
ACAD_EXEMPT_FROM_CAD_STANDARDS
 70
     0
  0
ENDTAB
  0
TABLE
  2
DIMSTYLE
 70
     2
  0
DIMSTYLE
  2
STANDARD
 70
     0
  3

  4

  5

  6

  7

 40
1.0
 41
0.18
 42
0.0625
 43
0.38
 44
0.18
 45
0.0
 46
0.0
 47
0.0
 48
0.0
140
0.18
141
0.09
142
0.0
143
25.399999999999999
144
1.0
145
0.0
146
1.0
147
0.09
 71
     0
 72
     0
 73
     1
 74
     1
 75
     0
 76
     0
 77
     0
 78
     0
170
     0
171
     2
172
     0
173
     0
174
     0
175
     0
176
     0
177
     0
178
     0
  0
DIMSTYLE
  2
ANNOTATIVE
 70
     0
  3

  4

  5

  6

  7

 40
1.0
 41
0.18
 42
0.0625
 43
0.38
 44
0.18
 45
0.0
 46
0.0
 47
0.0
 48
0.0
140
0.18
141
0.09
142
0.0
143
25.399999999999999
144
1.0
145
0.0
146
1.0
147
0.09
 71
     0
 72
     0
 73
     1
 74
     1
 75
     0
 76
     0
 77
     0
 78
     0
170
     0
171
     2
172
     0
173
     0
174
     0
175
     0
176
     0
177
     0
178
     0
  0
ENDTAB
  0
ENDSEC
  0
SECTION
  2
BLOCKS
  0
BLOCK
  8
0
  2
$MODEL_SPACE
 70
     0
 10
0.0
 20
0.0
 30
0.0
  3
$MODEL_SPACE
  1

  0
ENDBLK
  5
B22
  8
0
  0
BLOCK
 67
     1
  8
0
  2
$PAPER_SPACE
 70
     0
 10
0.0
 20
0.0
 30
0.0
  3
$PAPER_SPACE
  1

  0
ENDBLK
  5
B1E
 67
     1
  8
0
  0
BLOCK
  8
0
  2
_DOTBLANK
 70
     0
 10
0.0
 20
0.0
 30
0.0
  3
_DOTBLANK
  1

  0
CIRCLE
  5
3F
  8
0
  6
BYBLOCK
 62
     0
 10
0.0
 20
0.0
 30
0.0
 40
0.5
  0
LINE
  5
40
  8
0
  6
BYBLOCK
 62
     0
 10
-0.5
 20
0.0
 30
0.0
 11
-1.0
 21
0.0
 31
0.0
  0
ENDBLK
  5
41
  8
0
  0
BLOCK
  8
0
  2
_ORIGIN
 70
     0
 10
0.0
 20
0.0
 30
0.0
  3
_ORIGIN
  1

  0
CIRCLE
  5
44
  8
0
  6
BYBLOCK
 62
     0
 10
0.0
 20
0.0
 30
0.0
 40
0.5
  0
LINE
  5
45
  8
0
  6
BYBLOCK
 62
     0
 10
-0.5
 20
0.0
 30
0.0
 11
-1.0
 21
0.0
 31
0.0
  0
ENDBLK
  5
46
  8
0
  0
BLOCK
  8
0
  2
A$C0E0E5120
 70
     0
 10
0.0
 20
0.0
 30
0.0
  3
A$C0E0E5120
  1

  0
LINE
  5
49
  8
NOTE
  6
BYBLOCK
 10
0.00001
 20
20.000001999999999
 30
0.0
 11
40.000010000000003
 21
20.000001999999999
 31
0.0
  0
LINE
  5
4A
  8
NOTE
  6
BYBLOCK
 10
20.00001
 20
0.000002
 30
0.0
 11
20.00001
 21
40.000002000000002
 31
0.0
  0
ENDBLK
  5
4B
  8
0
  0
BLOCK
  8
0
  2
*D5
 70
     1
 10
0.0
 20
0.0
 30
0.0
  3
*D5
  1

  0
LINE
  5
22C
  8
SIZE
  6
CONTINUOUS
 62
     0
 10
615.00003000000004
 20
171.0
 30
0.0
 11
788.81700499999999
 21
170.9999999999998
 31
0.0
  0
LINE
  5
22D
  8
SIZE
  6
CONTINUOUS
 62
     0
 10
585.0
 20
-6.0000000000000044
 30
0.0
 11
788.81700499999999
 21
-6.0000000000000631
 31
0.0
  0
LINE
  5
22E
  8
SIZE
  6
CONTINUOUS
 62
     0
 10
758.81700499999999
 20
160.9999999999998
 30
0.0
 11
758.81700499999999
 21
3.999999999999944
 31
0.0
  0
INSERT
  5
22F
  8
SIZE
  6
CONTINUOUS
 62
     0
  2
_DOTBLANK
 10
758.81700499999999
 20
170.9999999999998
 30
0.0
 41
10.0
 42
10.0
 43
10.0
 50
90.0
  0
INSERT
  5
230
  8
SIZE
  6
CONTINUOUS
 62
     0
  2
_DOTBLANK
 10
758.81700499999999
 20
-6.0000000000000551
 30
0.0
 41
10.0
 42
10.0
 43
10.0
 50
270.0
  0
INSERT
  5
231
  8
SYMBOLLINE
  6
CONTINUOUS
  2
*U6
 10
0.0
 20
0.0
 30
0.0
  0
POINT
  5
232
  8
DEFPOINTS
  6
CONTINUOUS
 62
     0
 10
595.00003000000004
 20
171.0
 30
0.0
  0
POINT
  5
233
  8
DEFPOINTS
  6
CONTINUOUS
 62
     0
 10
565.0
 20
-6.0
 30
0.0
  0
POINT
  5
234
  8
DEFPOINTS
  6
CONTINUOUS
 62
     0
 10
758.81700499999999
 20
-6.0000000000000551
 30
0.0
  0
ENDBLK
  5
22B
  8
0
  0
BLOCK
  8
0
  2
*U6
 70
     1
 10
0.0
 20
0.0
 30
0.0
  3
*U6
  1

  0
TEXT
  5
3D0
  8
SIZE
  6
CONTINUOUS
 62
     0
 10
758.72700499999985
 20
13.928571428571511
 30
0.0
 40
64.0
  1
177
 50
90.0
 41
0.9
  0
ENDBLK
  5
3D2
  8
0
  0
BLOCK
  8
0
  2
*D7
 70
     1
 10
0.0
 20
0.0
 30
0.0
  3
*D7
  1

  0
LINE
  5
25D
  8
SIZE
  6
CONTINUOUS
 62
     0
 10
545.0
 20
-46.0
 30
0.0
 11
545.0
 21
-386.56501740530439
 31
0.0
  0
LINE
  5
25E
  8
SIZE
  6
CONTINUOUS
 62
     0
 10
595.00003000000004
 20
-199.0
 30
0.0
 11
595.00003000000004
 21
-386.56501740530439
 31
0.0
  0
LINE
  5
25F
  8
SIZE
  6
CONTINUOUS
 62
     0
 10
555.0
 20
-356.56501740530439
 30
0.0
 11
585.00003000000004
 21
-356.56501740530439
 31
0.0
  0
LINE
  5
260
  8
SIZE
  6
CONTINUOUS
 62
     0
 10
595.00003000000004
 20
-356.56501740530439
 30
0.0
 11
714.24671913642453
 21
-356.56501740530439
 31
0.0
  0
INSERT
  5
261
  8
SIZE
  6
CONTINUOUS
 62
     0
  2
_DOTBLANK
 10
545.0
 20
-356.56501740530439
 30
0.0
 41
10.0
 42
10.0
 43
10.0
 50
180.0
  0
INSERT
  5
262
  8
SIZE
  6
CONTINUOUS
 62
     0
  2
_DOTBLANK
 10
595.00003000000004
 20
-356.56501740530439
 30
0.0
 41
10.0
 42
10.0
 43
10.0
  0
INSERT
  5
263
  8
SYMBOLLINE
  6
CONTINUOUS
  2
*U8
 10
0.0
 20
0.0
 30
0.0
  0
POINT
  5
264
  8
DEFPOINTS
  6
CONTINUOUS
 62
     0
 10
545.0
 20
-26.0
 30
0.0
  0
POINT
  5
265
  8
DEFPOINTS
  6
CONTINUOUS
 62
     0
 10
595.00003000000004
 20
-179.0
 30
0.0
  0
POINT
  5
266
  8
DEFPOINTS
  6
CONTINUOUS
 62
     0
 10
595.00003000000004
 20
-356.56501740530439
 30
0.0
  0
ENDBLK
  5
238
  8
0
  0
BLOCK
  8
0
  2
*U8
 70
     1
 10
0.0
 20
0.0
 30
0.0
  3
*U8
  1

  0
TEXT
  5
3D4
  8
SIZE
  6
CONTINUOUS
 62
     0
 10
620.89957627928175
 20
-356.47501740530441
 30
0.0
 40
64.0
  1
50
 41
0.9
  0
ENDBLK
  5
3D6
  8
0
  0
BLOCK
  8
0
  2
*D9
 70
     1
 10
0.0
 20
0.0
 30
0.0
  3
*D9
  1

  0
LINE
  5
267
  8
SIZE
  6
CONTINUOUS
 62
     0
 10
570.00003000000004
 20
-170.9999999999998
 30
0.0
 11
167.36141015311301
 21
-170.9999999999998
 31
0.0
  0
LINE
  5
268
  8
SIZE
  6
CONTINUOUS
 62
     0
 10
350.00002999999998
 20
-228.0
 30
0.0
 11
167.3614101531129
 21
-227.99999999999989
 31
0.0
  0
LINE
  5
269
  8
SIZE
  6
CONTINUOUS
 62
     0
 10
197.36141015311301
 20
-180.99999999999989
 30
0.0
 11
197.3614101531129
 21
-218.0
 31
0.0
  0
LINE
  5
26A
  8
SIZE
  6
CONTINUOUS
 62
     0
 10
197.3614101531129
 20
-228.0
 30
0.0
 11
197.3614101531129
 21
-335.80094643312441
 31
0.0
  0
INSERT
  5
26B
  8
SIZE
  6
CONTINUOUS
 62
     0
  2
_DOTBLANK
 10
197.36141015311301
 20
-170.9999999999998
 30
0.0
 41
10.0
 42
10.0
 43
10.0
 50
90.0
  0
INSERT
  5
26C
  8
SIZE
  6
CONTINUOUS
 62
     0
  2
_DOTBLANK
 10
197.3614101531129
 20
-228.0
 30
0.0
 41
10.0
 42
10.0
 43
10.0
 50
270.0
  0
INSERT
  5
26D
  8
SYMBOLLINE
  6
CONTINUOUS
  2
*U10
 10
0.0
 20
0.0
 30
0.0
  0
POINT
  5
26E
  8
DEFPOINTS
  6
CONTINUOUS
 62
     0
 10
590.00003000000004
 20
-171.0
 30
0.0
  0
POINT
  5
26F
  8
DEFPOINTS
  6
CONTINUOUS
 62
     0
 10
370.00002999999998
 20
-228.0
 30
0.0
  0
POINT
  5
270
  8
DEFPOINTS
  6
CONTINUOUS
 62
     0
 10
197.3614101531129
 20
-228.0
 30
0.0
  0
ENDBLK
  5
247
  8
0
  0
BLOCK
  8
0
  2
*U10
 70
     1
 10
0.0
 20
0.0
 30
0.0
  3
*U10
  1

  0
TEXT
  5
3D8
  8
SIZE
  6
CONTINUOUS
 62
     0
 10
197.27141015311301
 20
-335.71094643312432
 30
0.0
 40
64.0
  1
57
 50
90.0
 41
0.9
  0
ENDBLK
  5
3DA
  8
0
  0
BLOCK
  8
0
  2
*D11
 70
     1
 10
0.0
 20
0.0
 30
0.0
  3
*D11
  1

  0
LINE
  5
2F7
  8
SIZE
  6
CONTINUOUS
 62
     0
 10
615.00003000000004
 20
171.0
 30
0.0
 11
1059.985028421454
 21
170.9999999999998
 31
0.0
  0
LINE
  5
2F8
  8
SIZE
  6
CONTINUOUS
 62
     0
 10
615.00003000000004
 20
-179.0
 30
0.0
 11
1059.985028421454
 21
-179.00000000000011
 31
0.0
  0
LINE
  5
2F9
  8
SIZE
  6
CONTINUOUS
 62
     0
 10
1029.985028421454
 20
160.9999999999998
 30
0.0
 11
1029.985028421454
 21
-169.00000000000011
 31
0.0
  0
INSERT
  5
2FA
  8
SIZE
  6
CONTINUOUS
 62
     0
  2
_DOTBLANK
 10
1029.985028421454
 20
170.9999999999998
 30
0.0
 41
10.0
 42
10.0
 43
10.0
 50
90.0
  0
INSERT
  5
2FB
  8
SIZE
  6
CONTINUOUS
 62
     0
  2
_DOTBLANK
 10
1029.985028421454
 20
-179.00000000000011
 30
0.0
 41
10.0
 42
10.0
 43
10.0
 50
270.0
  0
INSERT
  5
2FC
  8
SYMBOLLINE
  6
CONTINUOUS
  2
*U12
 10
0.0
 20
0.0
 30
0.0
  0
POINT
  5
2FD
  8
DEFPOINTS
  6
CONTINUOUS
 62
     0
 10
595.00003000000004
 20
171.0
 30
0.0
  0
POINT
  5
2FE
  8
DEFPOINTS
  6
CONTINUOUS
 62
     0
 10
595.00003000000004
 20
-179.0
 30
0.0
  0
POINT
  5
2FF
  8
DEFPOINTS
  6
CONTINUOUS
 62
     0
 10
1029.985028421454
 20
-179.00000000000011
 30
0.0
  0
ENDBLK
  5
2AD
  8
0
  0
BLOCK
  8
0
  2
*U12
 70
     1
 10
0.0
 20
0.0
 30
0.0
  3
*U12
  1

  0
TEXT
  5
3E0
  8
SIZE
  6
CONTINUOUS
 62
     0
 10
1029.895028421455
 20
-78.057142857142779
 30
0.0
 40
64.0
  1
350
 50
90.0
 41
0.9
  0
ENDBLK
  5
3E2
  8
0
  0
BLOCK
  8
0
  2
*D13
 70
     1
 10
0.0
 20
0.0
 30
0.0
  3
*D13
  1

  0
LINE
  5
2ED
  8
SIZE
  6
CONTINUOUS
 62
     0
 10
615.00003000000004
 20
-179.0
 30
0.0
 11
1059.985028421454
 21
-179.00000000000011
 31
0.0
  0
LINE
  5
2EE
  8
SIZE
  6
CONTINUOUS
 62
     0
 10
595.00003000000004
 20
-247.0
 30
0.0
 11
1059.985028421454
 21
-247.00000000000011
 31
0.0
  0
LINE
  5
2EF
  8
SIZE
  6
CONTINUOUS
 62
     0
 10
1029.985028421454
 20
-189.0
 30
0.0
 11
1029.985028421454
 21
-237.00000000000011
 31
0.0
  0
LINE
  5
2F0
  8
SIZE
  6
CONTINUOUS
 62
     0
 10
1029.985028421454
 20
-247.00000000000011
 30
0.0
 11
1029.985028421454
 21
-367.9495329890143
 31
0.0
  0
INSERT
  5
2F1
  8
SIZE
  6
CONTINUOUS
 62
     0
  2
_DOTBLANK
 10
1029.985028421454
 20
-179.00000000000011
 30
0.0
 41
10.0
 42
10.0
 43
10.0
 50
90.0
  0
INSERT
  5
2F2
  8
SIZE
  6
CONTINUOUS
 62
     0
  2
_DOTBLANK
 10
1029.985028421454
 20
-247.00000000000011
 30
0.0
 41
10.0
 42
10.0
 43
10.0
 50
270.0
  0
INSERT
  5
2F3
  8
SYMBOLLINE
  6
CONTINUOUS
  2
*U14
 10
0.0
 20
0.0
 30
0.0
  0
POINT
  5
2F4
  8
DEFPOINTS
  6
CONTINUOUS
 62
     0
 10
595.00003000000004
 20
-179.0
 30
0.0
  0
POINT
  5
2F5
  8
DEFPOINTS
  6
CONTINUOUS
 62
     0
 10
575.00003000000004
 20
-247.0
 30
0.0
  0
POINT
  5
2F6
  8
DEFPOINTS
  6
CONTINUOUS
 62
     0
 10
1029.985028421454
 20
-247.00000000000011
 30
0.0
  0
ENDBLK
  5
2BA
  8
0
  0
BLOCK
  8
0
  2
*U14
 70
     1
 10
0.0
 20
0.0
 30
0.0
  3
*U14
  1

  0
TEXT
  5
3DC
  8
SIZE
  6
CONTINUOUS
 62
     0
 10
1029.895028421455
 20
-367.8595329890141
 30
0.0
 40
64.0
  1
68
 50
90.0
 41
0.9
  0
ENDBLK
  5
3DE
  8
0
  0
BLOCK
  8
0
  2
*D15
 70
     1
 10
0.0
 20
0.0
 30
0.0
  3
*D15
  1

  0
LINE
  5
342
  8
SYMBOLLINE
  6
CONTINUOUS
 62
     0
 10
428.88999999999987
 20
233.0
 30
0.0
 11
325.08703216358123
 21
233.0
 31
0.0
  0
LINE
  5
343
  8
SYMBOLLINE
  6
CONTINUOUS
 62
     0
 10
428.88999999999987
 20
243.0
 30
0.0
 11
325.08703216358123
 21
243.0
 31
0.0
  0
LINE
  5
344
  8
SYMBOLLINE
  6
CONTINUOUS
 62
     0
 10
355.08703216358123
 20
223.0
 30
0.0
 11
355.08703216358123
 21
213.0
 31
0.0
  0
LINE
  5
345
  8
SYMBOLLINE
  6
CONTINUOUS
 62
     0
 10
355.08703216358123
 20
253.0
 30
0.0
 11
355.08703216358123
 21
345.46571428571428
 31
0.0
  0
LINE
  5
346
  8
SYMBOLLINE
  6
CONTINUOUS
 62
     0
 10
355.08703216358123
 20
233.0
 30
0.0
 11
355.08703216358123
 21
243.0
 31
0.0
  0
INSERT
  5
347
  8
SYMBOLLINE
  6
CONTINUOUS
 62
     0
  2
_DOTBLANK
 10
355.08703216358123
 20
233.0
 30
0.0
 41
10.0
 42
10.0
 43
10.0
 50
90.0
  0
INSERT
  5
348
  8
SYMBOLLINE
  6
CONTINUOUS
 62
     0
  2
_DOTBLANK
 10
355.08703216358123
 20
243.0
 30
0.0
 41
10.0
 42
10.0
 43
10.0
 50
270.0
  0
INSERT
  5
349
  8
SYMBOLLINE
  6
CONTINUOUS
  2
*U16
 10
0.0
 20
0.0
 30
0.0
  0
POINT
  5
34A
  8
DEFPOINTS
  6
CONTINUOUS
 62
     0
 10
448.88999999999999
 20
233.0
 30
0.0
  0
POINT
  5
34B
  8
DEFPOINTS
  6
CONTINUOUS
 62
     0
 10
448.88999999999999
 20
243.0
 30
0.0
  0
POINT
  5
34C
  8
DEFPOINTS
  6
CONTINUOUS
 62
     0
 10
355.08703216358123
 20
243.0
 30
0.0
  0
ENDBLK
  5
32B
  8
0
  0
BLOCK
  8
0
  2
*U16
 70
     1
 10
0.0
 20
0.0
 30
0.0
  3
*U16
  1

  0
TEXT
  5
3E4
  8
SYMBOLLINE
  6
CONTINUOUS
 62
     0
 10
354.99703216358108
 20
263.09000000000009
 30
0.0
 40
64.0
  1
10
 50
90.0
 41
0.9
  0
ENDBLK
  5
3E6
  8
0
  0
BLOCK
  8
0
  2
*D17
 70
     1
 10
0.0
 20
0.0
 30
0.0
  3
*D17
  1

  0
LINE
  5
9E5
  8
SIZE
  6
CONTINUOUS
 62
     0
 10
749.35002999999972
 20
205.0
 30
0.0
 11
914.05578633479286
 21
205.0
 31
0.0
  0
LINE
  5
9E6
  8
SIZE
  6
CONTINUOUS
 62
     0
 10
763.00002999999981
 20
215.0
 30
0.0
 11
914.05578633479286
 21
215.0
 31
0.0
  0
LINE
  5
9E7
  8
SIZE
  6
CONTINUOUS
 62
     0
 10
884.05578633479297
 20
195.0
 30
0.0
 11
884.05578633479297
 21
184.99999999999989
 31
0.0
  0
LINE
  5
9E8
  8
SIZE
  6
CONTINUOUS
 62
     0
 10
884.05578633479297
 20
225.0
 30
0.0
 11
884.0557863347932
 21
339.78686476289482
 31
0.0
  0
LINE
  5
9E9
  8
SIZE
  6
CONTINUOUS
 62
     0
 10
884.05578633479297
 20
205.0
 30
0.0
 11
884.05578633479297
 21
215.0
 31
0.0
  0
INSERT
  5
9EA
  8
SIZE
  6
CONTINUOUS
 62
     0
  2
_DOTBLANK
 10
884.05578633479297
 20
205.0
 30
0.0
 41
10.0
 42
10.0
 43
10.0
 50
90.0
  0
INSERT
  5
9EB
  8
SIZE
  6
CONTINUOUS
 62
     0
  2
_DOTBLANK
 10
884.05578633479297
 20
215.0
 30
0.0
 41
10.0
 42
10.0
 43
10.0
 50
270.0
  0
INSERT
  5
9EC
  8
SYMBOLLINE
  6
CONTINUOUS
  2
*U18
 10
0.0
 20
0.0
 30
0.0
  0
POINT
  5
9ED
  8
DEFPOINTS
  6
CONTINUOUS
 62
     0
 10
729.35002999999972
 20
205.0
 30
0.0
  0
POINT
  5
9EE
  8
DEFPOINTS
  6
CONTINUOUS
 62
     0
 10
743.0000299999997
 20
215.0
 30
0.0
  0
POINT
  5
9EF
  8
DEFPOINTS
  6
CONTINUOUS
 62
     0
 10
884.05578633479297
 20
215.0
 30
0.0
  0
ENDBLK
  5
9B8
  8
0
  0
BLOCK
  8
0
  2
*U18
 70
     1
 10
0.0
 20
0.0
 30
0.0
  3
*U18
  1

  0
TEXT
  5
AA6
  8
SIZE
  6
CONTINUOUS
 62
     0
 10
883.96578633479294
 20
257.41115047718063
 30
0.0
 40
64.0
  1
10
 50
90.0
 41
0.9
  0
ENDBLK
  5
AA8
  8
0
  0
BLOCK
  8
0
  2
*D19
 70
     1
 10
0.0
 20
0.0
 30
0.0
  3
*D19
  1

  0
LINE
  5
A41
  8
SIZE
  6
CONTINUOUS
 62
     0
 10
723.00002999999981
 20
255.0
 30
0.0
 11
723.00002999999981
 21
471.66470430723348
 31
0.0
  0
LINE
  5
A42
  8
SIZE
  6
CONTINUOUS
 62
     0
 10
790.0
 20
191.0
 30
0.0
 11
790.0
 21
471.66470430723348
 31
0.0
  0
LINE
  5
A43
  8
SIZE
  6
CONTINUOUS
 62
     0
 10
733.00002999999981
 20
441.66470430723348
 30
0.0
 11
780.0
 21
441.66470430723348
 31
0.0
  0
LINE
  5
A44
  8
SIZE
  6
CONTINUOUS
 62
     0
 10
790.0
 20
441.66470430723348
 30
0.0
 11
910.11819802610785
 21
441.66470430723348
 31
0.0
  0
INSERT
  5
A45
  8
SIZE
  6
CONTINUOUS
 62
     0
  2
_DOTBLANK
 10
723.00002999999981
 20
441.66470430723348
 30
0.0
 41
10.0
 42
10.0
 43
10.0
 50
180.0
  0
INSERT
  5
A46
  8
SIZE
  6
CONTINUOUS
 62
     0
  2
_DOTBLANK
 10
790.0
 20
441.66470430723348
 30
0.0
 41
10.0
 42
10.0
 43
10.0
  0
INSERT
  5
A47
  8
SYMBOLLINE
  6
CONTINUOUS
  2
*U20
 10
0.0
 20
0.0
 30
0.0
  0
POINT
  5
A48
  8
DEFPOINTS
  6
CONTINUOUS
 62
     0
 10
723.00002999999981
 20
235.0
 30
0.0
  0
POINT
  5
A49
  8
DEFPOINTS
  6
CONTINUOUS
 62
     0
 10
790.0
 20
171.0
 30
0.0
  0
POINT
  5
A4A
  8
DEFPOINTS
  6
CONTINUOUS
 62
     0
 10
790.0
 20
441.66470430723348
 30
0.0
  0
ENDBLK
  5
A02
  8
0
  0
BLOCK
  8
0
  2
*U20
 70
     1
 10
0.0
 20
0.0
 30
0.0
  3
*U20
  1

  0
TEXT
  5
AAA
  8
SIZE
  6
CONTINUOUS
 62
     0
 10
816.77105516896495
 20
441.75470430723328
 30
0.0
 40
64.0
  1
67
 41
0.9
  0
ENDBLK
  5
AAC
  8
0
  0
ENDSEC
  0
SECTION
  2
ENTITIES
  0
LINE
  5
4D
  8
BASIS
  6
DASHDOT
 10
850.0
 20
0.0
 30
0.0
 11
-850.0
 21
0.0
 31
0.0
  0
LINE
  5
4E
  8
BASIS
  6
DASHDOT
 10
0.0
 20
250.0
 30
0.0
 11
0.0
 21
-250.0
 31
0.0
  0
LINE
  5
4F
  8
DETAIL
  6
BYBLOCK
 10
-795.0
 20
-179.0
 30
0.0
 11
-765.0
 21
-179.0
 31
0.0
  0
LINE
  5
50
  8
DETAIL
  6
BYBLOCK
 10
795.0
 20
171.0
 30
0.0
 11
-795.0
 21
171.0
 31
0.0
  0
LINE
  5
51
  8
DETAIL
  6
BYBLOCK
 10
-790.0
 20
-171.0
 30
0.0
 11
790.0
 21
-171.0
 31
0.0
  0
LINE
  5
52
  8
DETAIL
  6
BYBLOCK
 10
-790.0
 20
171.0
 30
0.0
 11
-790.0
 21
-171.0
 31
0.0
  0
LINE
  5
53
  8
DETAIL
  6
BYBLOCK
 10
-795.0
 20
171.0
 30
0.0
 11
-795.0
 21
-179.0
 31
0.0
  0
LINE
  5
54
  8
DETAIL
  6
BYBLOCK
 10
-735.00000000000011
 20
-243.0
 30
0.0
 11
-740.00000000000011
 21
-248.0
 31
0.0
  0
LINE
  5
55
  8
DETAIL
  6
BYBLOCK
 10
-765.0
 20
-243.0
 30
0.0
 11
-760.00000000000011
 21
-248.0
 31
0.0
  0
CIRCLE
  5
56
  8
DETAIL
  6
BYBLOCK
 10
-750.0
 20
-228.0
 30
0.0
 40
6.0
  0
CIRCLE
  5
57
  8
FIX
  6
BYBLOCK
 10
-750.0
 20
-228.0
 30
0.0
 40
10.0
  0
LINE
  5
58
  8
DETAIL
  6
BYBLOCK
 10
-760.00000000000011
 20
-248.0
 30
0.0
 11
-740.00000000000011
 21
-248.0
 31
0.0
  0
LINE
  5
59
  8
DETAIL
  6
BYBLOCK
 10
-765.0
 20
-171.0
 30
0.0
 11
-765.0
 21
-243.0
 31
0.0
  0
LINE
  5
5A
  8
DETAIL
  6
BYBLOCK
 10
-735.00000000000011
 20
-171.0
 30
0.0
 11
-735.00000000000011
 21
-243.0
 31
0.0
  0
ARC
  5
5B
  8
DETAIL
  6
BYBLOCK
 10
-750.0
 20
205.0
 30
0.0
 40
6.0
 50
180.0
 51
0.0
  0
CIRCLE
  5
5C
  8
FIX
  6
BYBLOCK
 10
-750.0
 20
205.0
 30
0.0
 40
10.0
  0
LINE
  5
5D
  8
DETAIL
  6
BYBLOCK
 10
-765.0
 20
171.0
 30
0.0
 11
-765.0
 21
214.0
 31
0.0
  0
LINE
  5
5E
  8
DETAIL
  6
BYBLOCK
 10
-735.00000000000011
 20
171.0
 30
0.0
 11
-735.00000000000011
 21
214.0
 31
0.0
  0
LINE
  5
5F
  8
DETAIL
  6
BYBLOCK
 10
-744.00000000000011
 20
219.0
 30
0.0
 11
-740.00000000000011
 21
219.0
 31
0.0
  0
LINE
  5
60
  8
DETAIL
  6
BYBLOCK
 10
-744.00000000000011
 20
205.0
 30
0.0
 11
-744.00000000000011
 21
219.0
 31
0.0
  0
LINE
  5
61
  8
DETAIL
  6
BYBLOCK
 10
-756.00000000000011
 20
205.0
 30
0.0
 11
-756.00000000000011
 21
219.0
 31
0.0
  0
LINE
  5
62
  8
DETAIL
  6
BYBLOCK
 10
-765.0
 20
214.0
 30
0.0
 11
-760.00000000000011
 21
219.0
 31
0.0
  0
LINE
  5
63
  8
DETAIL
  6
BYBLOCK
 10
-735.00000000000011
 20
214.0
 30
0.0
 11
-740.00000000000011
 21
219.0
 31
0.0
  0
LINE
  5
64
  8
DETAIL
  6
BYBLOCK
 10
-760.00000000000011
 20
219.0
 30
0.0
 11
-756.00000000000011
 21
219.0
 31
0.0
  0
LINE
  5
65
  8
DETAIL
  6
BYBLOCK
 10
790.0
 20
171.0
 30
0.0
 11
790.0
 21
-171.0
 31
0.0
  0
LINE
  5
66
  8
DETAIL
  6
BYBLOCK
 10
795.0
 20
171.0
 30
0.0
 11
795.0
 21
-179.0
 31
0.0
  0
LINE
  5
67
  8
NOTE
 10
-651.71751600000005
 20
-381.35589300000009
 30
0.0
 11
-320.88370937217849
 21
-381.35589300000009
 31
0.0
  0
LINE
  5
70
  8
DETAIL
  6
BYBLOCK
 10
624.99999999999989
 20
-171.0
 30
0.0
 11
624.99999999999989
 21
-247.0
 31
0.0
  0
CIRCLE
  5
71
  8
FIX
  6
BYBLOCK
 10
590.0
 20
-228.0
 30
0.0
 40
10.0
  0
CIRCLE
  5
72
  8
DETAIL
  6
BYBLOCK
 10
590.0
 20
-228.0
 30
0.0
 40
6.0
  0
LINE
  5
73
  8
DETAIL
  6
BYBLOCK
 10
575.0
 20
-243.0
 30
0.0
 11
580.0
 21
-248.0
 31
0.0
  0
LINE
  5
74
  8
DETAIL
  6
BYBLOCK
 10
604.99999999999977
 20
-243.0
 30
0.0
 11
599.99999999999989
 21
-248.0
 31
0.0
  0
LINE
  5
75
  8
DETAIL
  6
BYBLOCK
 10
580.0
 20
-248.0
 30
0.0
 11
599.99999999999989
 21
-248.0
 31
0.0
  0
LINE
  5
76
  8
DETAIL
  6
BYBLOCK
 10
575.0
 20
-171.0
 30
0.0
 11
575.0
 21
-243.0
 31
0.0
  0
LINE
  5
77
  8
DETAIL
  6
BYBLOCK
 10
604.99999999999977
 20
-171.0
 30
0.0
 11
604.99999999999977
 21
-243.0
 31
0.0
  0
LINE
  5
78
  8
DETAIL
  6
BYBLOCK
 10
775.0
 20
-171.0
 30
0.0
 11
775.0
 21
-247.0
 31
0.0
  0
CIRCLE
  5
79
  8
FIX
  6
BYBLOCK
 10
590.0
 20
205.0
 30
0.0
 40
10.0
  0
ARC
  5
7A
  8
DETAIL
  6
BYBLOCK
 10
590.0
 20
205.0
 30
0.0
 40
6.0
 50
180.0
 51
0.0
  0
LINE
  5
7B
  8
DETAIL
  6
BYBLOCK
 10
575.0
 20
171.0
 30
0.0
 11
575.0
 21
214.0
 31
0.0
  0
LINE
  5
7C
  8
DETAIL
  6
BYBLOCK
 10
604.99999999999977
 20
171.0
 30
0.0
 11
604.99999999999977
 21
214.0
 31
0.0
  0
LINE
  5
7D
  8
DETAIL
  6
BYBLOCK
 10
604.99999999999977
 20
214.0
 30
0.0
 11
599.99999999999989
 21
219.0
 31
0.0
  0
LINE
  5
7E
  8
DETAIL
  6
BYBLOCK
 10
575.0
 20
214.0
 30
0.0
 11
580.0
 21
219.0
 31
0.0
  0
LINE
  5
7F
  8
DETAIL
  6
BYBLOCK
 10
580.0
 20
219.0
 30
0.0
 11
584.0
 21
219.0
 31
0.0
  0
LINE
  5
80
  8
DETAIL
  6
BYBLOCK
 10
596.0
 20
219.0
 30
0.0
 11
599.99999999999989
 21
219.0
 31
0.0
  0
LINE
  5
81
  8
DETAIL
  6
BYBLOCK
 10
584.0
 20
205.0
 30
0.0
 11
584.0
 21
219.0
 31
0.0
  0
LINE
  5
82
  8
DETAIL
  6
BYBLOCK
 10
596.0
 20
205.0
 30
0.0
 11
596.0
 21
219.0
 31
0.0
  0
POINT
  5
8B
  8
ARRANGE
  6
DASHDOT
 10
0.0
 20
0.0
 30
0.0
  0
CIRCLE
  5
8C
  8
ARRANGE
  6
CONTINUOUS
 10
0.0
 20
0.0
 30
0.0
 40
40.0
  0
LINE
  5
91
  8
NOTE
  6
CONTINUOUS
 10
659.99999999999955
 20
253.0
 30
0.0
 11
499.64646099999999
 21
492.84262999999987
 31
0.0
  0
LINE
  5
93
  8
NOTE
  6
CONTINUOUS
 10
-750.0
 20
-228.0
 30
0.0
 11
-651.71751600000005
 21
-381.35589300000009
 31
0.0
  0
LINE
  5
94
  8
OUTLINE
  6
BYBLOCK
 10
-795.0
 20
-179.0
 30
0.0
 11
795.0
 21
-179.0
 31
0.0
  0
LINE
  5
95
  8
OUTLINE
  6
BYBLOCK
 10
-795.0
 20
171.0
 30
0.0
 11
-795.0
 21
-179.0
 31
0.0
  0
LINE
  5
96
  8
OUTLINE
  6
BYBLOCK
 10
795.0
 20
171.0
 30
0.0
 11
-795.0
 21
171.0
 31
0.0
  0
LINE
  5
97
  8
OUTLINE
  6
BYBLOCK
 10
795.0
 20
171.0
 30
0.0
 11
795.0
 21
-179.0
 31
0.0
  0
LINE
  5
98
  8
DETAIL
  6
CONTINUOUS
 10
775.0
 20
-247.0
 30
0.0
 11
624.99999999999989
 21
-247.0
 31
0.0
  0
LINE
  5
9B
  8
SIZE
  6
BYBLOCK
 10
790.0
 20
-191.0
 30
0.0
 11
790.0
 21
-567.30281200000002
 31
0.0
  0
LINE
  5
9C
  8
SIZE
  6
BYBLOCK
 10
590.0
 20
-257.1632258356039
 30
0.0
 11
590.0
 21
-567.30281200000002
 31
0.0
  0
LINE
  5
9D
  8
SIZE
  6
BYBLOCK
 10
780.0
 20
-537.30281199999979
 30
0.0
 11
599.99999999999989
 21
-537.30281199999979
 31
0.0
  0
LINE
  5
9E
  8
SIZE
  6
BYBLOCK
 10
790.0
 20
191.0
 30
0.0
 11
790.0
 21
570.42245799999989
 31
0.0
  0
LINE
  5
9F
  8
SIZE
  6
BYBLOCK
 10
659.99999999999955
 20
273.0
 30
0.0
 11
659.99999999999955
 21
570.42245799999989
 31
0.0
  0
LINE
  5
A0
  8
SIZE
  6
BYBLOCK
 10
780.0
 20
540.42245800000001
 30
0.0
 11
670.0
 21
540.42245800000001
 31
0.0
  0
LINE
  5
A1
  8
SIZE
  6
BYBLOCK
 10
692.35190285177612
 20
253.0
 30
0.0
 11
1130.636233999998
 21
253.0
 31
0.0
  0
LINE
  5
A2
  8
SIZE
  6
BYBLOCK
 10
815.0
 20
171.0
 30
0.0
 11
1130.6362039999999
 21
171.0
 31
0.0
  0
LINE
  5
A3
  8
SIZE
  6
BYBLOCK
 10
1100.636233999998
 20
243.0
 30
0.0
 11
1100.6362039999999
 21
181.0
 31
0.0
  0
LINE
  5
A5
  8
SIZE
  6
BYBLOCK
 10
810.0
 20
-171.0
 30
0.0
 11
1130.6362039999999
 21
-171.0
 31
0.0
  0
LINE
  5
A6
  8
SIZE
  6
BYBLOCK
 10
1100.6362039999999
 20
-161.0
 30
0.0
 11
1100.6362039999999
 21
-151.0
 31
0.0
  0
LINE
  5
A9
  8
SIZE
  6
BYBLOCK
 10
-795.0
 20
-191.0
 30
0.0
 11
-795.0
 21
-738.36173299999984
 31
0.0
  0
LINE
  5
AA
  8
SIZE
  6
BYBLOCK
 10
795.0
 20
-191.0
 30
0.0
 11
795.0
 21
-738.36173299999984
 31
0.0
  0
LINE
  5
AB
  8
SIZE
  6
BYBLOCK
 10
-785.0
 20
-708.36173299999996
 30
0.0
 11
785.0
 21
-708.36173299999996
 31
0.0
  0
LINE
  5
AC
  8
SIZE
  6
BYBLOCK
 10
575.0
 20
-261.22875699999997
 30
0.0
 11
575.0
 21
-374.88724400000001
 31
0.0
  0
LINE
  5
AD
  8
SIZE
  6
BYBLOCK
 10
604.99999999999977
 20
-261.22875699999997
 30
0.0
 11
604.99999999999977
 21
-374.88724400000001
 31
0.0
  0
LINE
  5
AE
  8
SIZE
  6
BYBLOCK
 10
615.0
 20
-344.88724400000001
 30
0.0
 11
624.99999999999989
 21
-344.88724400000001
 31
0.0
  0
LINE
  5
AF
  8
SIZE
  6
BYBLOCK
 10
565.0
 20
-344.88724400000001
 30
0.0
 11
445.23735631060367
 21
-344.88724400000001
 31
0.0
  0
LINE
  5
B0
  8
SIZE
  6
BYBLOCK
 10
604.99999999999977
 20
-344.88724400000001
 30
0.0
 11
575.0
 21
-344.88724400000001
 31
0.0
  0
LINE
  5
B1
  8
SIZE
  6
BYBLOCK
 10
-775.17809409273195
 20
-228.0
 30
0.0
 11
-957.42986499999972
 21
-228.0
 31
0.0
  0
LINE
  5
B2
  8
SIZE
  6
BYBLOCK
 10
-770.0
 20
-248.0
 30
0.0
 11
-957.42986499999972
 21
-248.0
 31
0.0
  0
LINE
  5
B3
  8
SIZE
  6
BYBLOCK
 10
-927.42986499999961
 20
-218.0
 30
0.0
 11
-927.42986499999961
 21
-208.0
 31
0.0
  0
LINE
  5
B4
  8
SIZE
  6
BYBLOCK
 10
-927.42986499999961
 20
-258.0
 30
0.0
 11
-927.42986499999961
 21
-401.25714299999993
 31
0.0
  0
LINE
  5
B5
  8
SIZE
  6
BYBLOCK
 10
-927.42986499999961
 20
-228.0
 30
0.0
 11
-927.42986499999961
 21
-248.0
 31
0.0
  0
LINE
  5
B6
  8
SIZE
  6
BYBLOCK
 10
-750.0
 20
-253.0
 30
0.0
 11
-750.0
 21
-566.84992699999975
 31
0.0
  0
LINE
  5
B7
  8
SIZE
  6
BYBLOCK
 10
-790.0
 20
-191.0
 30
0.0
 11
-790.0
 21
-566.84992699999975
 31
0.0
  0
LINE
  5
B8
  8
SIZE
  6
BYBLOCK
 10
-740.00000000000011
 20
-536.84992699999998
 30
0.0
 11
-730.00000000000011
 21
-536.84992699999998
 31
0.0
  0
LINE
  5
B9
  8
SIZE
  6
BYBLOCK
 10
-800.00000000000011
 20
-536.84992699999998
 30
0.0
 11
-943.25714200000004
 21
-536.84992699999998
 31
0.0
  0
LINE
  5
BA
  8
SIZE
  6
BYBLOCK
 10
-750.0
 20
-536.84992699999998
 30
0.0
 11
-790.0
 21
-536.84992699999998
 31
0.0
  0
LINE
  5
BB
  8
SIZE
  6
BYBLOCK
 10
590.0
 20
-257.1632258356039
 30
0.0
 11
590.0
 21
-567.35729000000003
 31
0.0
  0
LINE
  5
BC
  8
SIZE
  6
BYBLOCK
 10
-750.0
 20
-253.0
 30
0.0
 11
-750.0
 21
-567.35729000000003
 31
0.0
  0
LINE
  5
BD
  8
SIZE
  6
BYBLOCK
 10
580.0
 20
-537.35729000000003
 30
0.0
 11
-730.00000000000011
 21
-536.84992699999998
 31
0.0
  0
LINE
  5
BE
  8
SIZE
  6
BYBLOCK
 10
-770.0
 20
219.0
 30
0.0
 11
-1120.468744
 21
219.0
 31
0.0
  0
LINE
  5
BF
  8
SIZE
  6
BYBLOCK
 10
-770.0
 20
-248.0
 30
0.0
 11
-1120.468744
 21
-248.0
 31
0.0
  0
LINE
  5
C0
  8
SIZE
  6
BYBLOCK
 10
-1090.468744
 20
209.0
 30
0.0
 11
-1090.468744
 21
-238.0
 31
0.0
  0
LINE
  5
C1
  8
SIZE
  6
BYBLOCK
 10
-782.82232783495851
 20
205.0
 30
0.0
 11
-957.40525500000012
 21
205.0
 31
0.0
  0
LINE
  5
C2
  8
SIZE
  6
BYBLOCK
 10
-775.17809409273195
 20
-228.0
 30
0.0
 11
-957.40525500000012
 21
-228.0
 31
0.0
  0
LINE
  5
C3
  8
SIZE
  6
BYBLOCK
 10
-927.40525499999956
 20
195.0
 30
0.0
 11
-927.40525499999956
 21
-218.0
 31
0.0
  0
LINE
  5
CA
  8
SIZE
  6
BYBLOCK
 10
815.0
 20
171.0
 30
0.0
 11
1130.6362039999999
 21
171.0
 31
0.0
  0
LINE
  5
CB
  8
SIZE
  6
BYBLOCK
 10
810.0
 20
-171.0
 30
0.0
 11
1130.6362039999999
 21
-171.0
 31
0.0
  0
LINE
  5
CC
  8
SIZE
  6
BYBLOCK
 10
1100.6362039999999
 20
161.0
 30
0.0
 11
1100.6362039999999
 21
-161.0
 31
0.0
  0
LINE
  5
CD
  8
SIZE
  6
BYBLOCK
 10
761.12868597597844
 20
215.0
 30
0.0
 11
988.81697499999996
 21
215.0
 31
0.0
  0
LINE
  5
CE
  8
SIZE
  6
BYBLOCK
 10
815.0
 20
171.0
 30
0.0
 11
988.81697499999996
 21
171.0
 31
0.0
  0
LINE
  5
D1
  8
SIZE
  6
BYBLOCK
 10
958.81697499999996
 20
215.0
 30
0.0
 11
958.81697499999996
 21
171.0
 31
0.0
  0
LINE
  5
DA
  8
NOTE
  6
BYBLOCK
 10
-750.0
 20
-248.0
 30
0.0
 11
-750.0
 21
-208.0
 31
0.0
  0
LINE
  5
DB
  8
NOTE
  6
BYBLOCK
 10
-730.00000000000011
 20
-228.0
 30
0.0
 11
-770.0
 21
-228.0
 31
0.0
  0
LINE
  5
DC
  8
NOTE
  6
CONTINUOUS
 10
-719.94835200000011
 20
-254.39883399999999
 30
0.0
 11
-750.0
 21
-228.0
 31
0.0
  0
LINE
  5
DD
  8
NOTE
  6
CONTINUOUS
 10
-750.0
 20
-228.0
 30
0.0
 11
-737.17392600000005
 21
-265.88788499999998
 31
0.0
  0
LINE
  5
DE
  8
NOTE
  6
BYBLOCK
 10
-750.0
 20
225.0
 30
0.0
 11
-750.0
 21
185.0
 31
0.0
  0
LINE
  5
DF
  8
NOTE
  6
BYBLOCK
 10
-730.00000000000011
 20
205.0
 30
0.0
 11
-770.0
 21
205.0
 31
0.0
  0
LINE
  5
E2
  8
NOTE
  6
BYBLOCK
 10
590.0
 20
-248.0
 30
0.0
 11
590.0
 21
-208.0
 31
0.0
  0
LINE
  5
E3
  8
NOTE
  6
BYBLOCK
 10
609.99999999999955
 20
-228.0
 30
0.0
 11
570.0
 21
-228.0
 31
0.0
  0
LINE
  5
E4
  8
NOTE
  6
BYBLOCK
 10
590.0
 20
225.0
 30
0.0
 11
590.0
 21
185.0
 31
0.0
  0
LINE
  5
E5
  8
NOTE
  6
BYBLOCK
 10
609.99999999999955
 20
205.0
 30
0.0
 11
570.0
 21
205.0
 31
0.0
  0
LINE
  5
E6
  8
NOTE
  6
CONTINUOUS
 10
629.9191049999996
 20
279.36546900000002
 30
0.0
 11
660.00002999999936
 21
253.0
 31
0.0
  0
LINE
  5
E7
  8
NOTE
  6
CONTINUOUS
 10
660.00002999999936
 20
253.0
 30
0.0
 11
647.13191899999936
 21
290.873628
 31
0.0
  0
LINE
  5
E8
  8
NOTE
  6
BYBLOCK
 10
660.00002999999936
 20
273.0
 30
0.0
 11
660.00002999999936
 21
233.0
 31
0.0
  0
LINE
  5
E9
  8
NOTE
  6
BYBLOCK
 10
680.00002999999936
 20
253.0
 30
0.0
 11
640.00002999999947
 21
253.0
 31
0.0
  0
TEXT
  5
F2
  8
ETC
  6
CONTINUOUS
 10
501.99810220583441
 20
867.21931122706883
 30
0.0
 40
64.0
  1
UCR-P6VHB2_1
 41
0.9
  0
TEXT
  5
F4
  8
SIZE
  6
CONTINUOUS
 10
656.4285719999998
 20
560.42245800000001
 30
0.0
 40
64.0
  1
130
 41
0.9
  0
TEXT
  5
F5
  8
SIZE
  6
CONTINUOUS
 10
615.94285714285718
 20
-517.30281200000002
 30
0.0
 40
64.0
  1
200
 41
0.9
 72
     1
 11
690.0
 21
-517.30281200000002
 31
0.0
  0
TEXT
  5
F6
  8
SIZE
  6
CONTINUOUS
 10
-947.42986499999972
 20
-376.2571429285714
 30
0.0
 40
64.0
  1
20
 50
90.0
 41
0.9
 72
     1
 11
-947.42986499999972
 21
-329.62857150000002
 31
0.0
  0
CIRCLE
  5
F7
  8
SIZE
  6
BYBLOCK
 10
-795.0
 20
-708.36173299999996
 30
0.0
 40
5.0
  0
LINE
  5
F8
  8
SIZE
  6
BYBLOCK
 10
-790.0
 20
-708.36173299999996
 30
0.0
 11
-785.0
 21
-708.36173299999996
 31
0.0
  0
TEXT
  5
F9
  8
SIZE
  6
CONTINUOUS
 10
-928.33147808619276
 20
-516.84992699999987
 30
0.0
 40
64.0
  1
40
 41
0.9
 72
     1
 11
-881.70290665762138
 21
-516.84992699999987
 31
0.0
  0
CIRCLE
  5
FA
  8
SIZE
  6
BYBLOCK
 10
-750.0
 20
-537.35729000000003
 30
0.0
 40
5.0
  0
LINE
  5
FB
  8
SIZE
  6
BYBLOCK
 10
-745.00000000000011
 20
-537.35729000000003
 30
0.0
 11
-740.00000000000011
 21
-537.35729000000003
 31
0.0
  0
CIRCLE
  5
FC
  8
SIZE
  6
BYBLOCK
 10
-750.0
 20
-536.84992699999998
 30
0.0
 40
5.0
  0
LINE
  5
FD
  8
SIZE
  6
BYBLOCK
 10
-745.00000000000011
 20
-536.84992699999998
 30
0.0
 11
-740.00000000000011
 21
-536.84992699999998
 31
0.0
  0
CIRCLE
  5
FE
  8
SIZE
  6
BYBLOCK
 10
-790.0
 20
-536.84992699999998
 30
0.0
 40
5.0
  0
LINE
  5
FF
  8
SIZE
  6
BYBLOCK
 10
-795.0
 20
-536.84992699999998
 30
0.0
 11
-800.00000000000011
 21
-536.84992699999998
 31
0.0
  0
TEXT
  5
100
  8
SIZE
  6
CONTINUOUS
 10
-96.0
 20
-688.36173299999984
 30
0.0
 40
64.0
  1
1590
 41
0.9
 72
     1
 11
0.0
 21
-688.36173299999984
 31
0.0
  0
TEXT
  5
101
  8
SIZE
  6
CONTINUOUS
 10
-171.0
 20
-517.35729000000003
 30
0.0
 40
64.0
  1
1340
 41
0.9
 72
     1
 11
-75.000000000000028
 21
-517.35729000000003
 31
0.0
  0
CIRCLE
  5
102
  8
SIZE
  6
BYBLOCK
 10
590.0
 20
-537.35729000000003
 30
0.0
 40
5.0
  0
LINE
  5
103
  8
SIZE
  6
BYBLOCK
 10
585.0
 20
-537.35729000000003
 30
0.0
 11
580.0
 21
-537.35729000000003
 31
0.0
  0
CIRCLE
  5
104
  8
SIZE
  6
BYBLOCK
 10
590.0
 20
-537.30281199999979
 30
0.0
 40
5.0
  0
LINE
  5
105
  8
SIZE
  6
BYBLOCK
 10
595.0
 20
-537.30281199999979
 30
0.0
 11
599.99999999999989
 21
-537.30281199999979
 31
0.0
  0
CIRCLE
  5
106
  8
SIZE
  6
BYBLOCK
 10
575.0
 20
-344.88724400000001
 30
0.0
 40
5.0
  0
LINE
  5
107
  8
SIZE
  6
BYBLOCK
 10
570.0
 20
-344.88724400000001
 30
0.0
 11
565.0
 21
-344.88724400000001
 31
0.0
  0
CIRCLE
  5
108
  8
SIZE
  6
BYBLOCK
 10
604.99999999999977
 20
-344.88724400000001
 30
0.0
 40
5.0
  0
LINE
  5
109
  8
SIZE
  6
BYBLOCK
 10
609.99999999999955
 20
-344.88724400000001
 30
0.0
 11
615.0
 21
-344.88724400000001
 31
0.0
  0
TEXT
  5
10A
  8
SIZE
  6
CONTINUOUS
 10
-1110.468744
 20
-88.557142857142836
 30
0.0
 40
64.0
  1
467
 50
90.0
 41
0.9
 72
     1
 11
-1110.468744
 21
-14.5
 31
0.0
  0
TEXT
  5
10B
  8
SIZE
  6
CONTINUOUS
 10
-947.4052549999999
 20
-85.557142857142864
 30
0.0
 40
64.0
  1
433
 50
90.0
 41
0.9
 72
     1
 11
-947.4052549999999
 21
-11.5
 31
0.0
  0
CIRCLE
  5
10C
  8
SIZE
  6
BYBLOCK
 10
-1090.468744
 20
-248.0
 30
0.0
 40
5.0
  0
LINE
  5
10D
  8
SIZE
  6
BYBLOCK
 10
-1090.468744
 20
-243.0
 30
0.0
 11
-1090.468744
 21
-238.0
 31
0.0
  0
CIRCLE
  5
10E
  8
SIZE
  6
BYBLOCK
 10
-927.40525499999956
 20
-228.0
 30
0.0
 40
5.0
  0
LINE
  5
10F
  8
SIZE
  6
BYBLOCK
 10
-927.40525499999956
 20
-223.0
 30
0.0
 11
-927.40525499999956
 21
-218.0
 31
0.0
  0
CIRCLE
  5
110
  8
SIZE
  6
BYBLOCK
 10
-927.42986499999961
 20
-248.0
 30
0.0
 40
5.0
  0
LINE
  5
111
  8
SIZE
  6
BYBLOCK
 10
-927.42986499999961
 20
-253.0
 30
0.0
 11
-927.42986499999961
 21
-258.0
 31
0.0
  0
CIRCLE
  5
112
  8
SIZE
  6
BYBLOCK
 10
-927.42986499999961
 20
-228.0
 30
0.0
 40
5.0
  0
LINE
  5
113
  8
SIZE
  6
BYBLOCK
 10
-927.42986499999961
 20
-223.0
 30
0.0
 11
-927.42986499999961
 21
-218.0
 31
0.0
  0
CIRCLE
  5
114
  8
SIZE
  6
BYBLOCK
 10
-1090.468744
 20
219.0
 30
0.0
 40
5.0
  0
LINE
  5
115
  8
SIZE
  6
BYBLOCK
 10
-1090.468744
 20
214.0
 30
0.0
 11
-1090.468744
 21
209.0
 31
0.0
  0
CIRCLE
  5
116
  8
SIZE
  6
BYBLOCK
 10
-927.40525499999956
 20
205.0
 30
0.0
 40
5.0
  0
LINE
  5
117
  8
SIZE
  6
BYBLOCK
 10
-927.40525499999956
 20
200.0
 30
0.0
 11
-927.40525499999956
 21
195.0
 31
0.0
  0
TEXT
  5
118
  8
SIZE
  6
CONTINUOUS
 10
458.4901067267304
 20
-329.64658718832288
 30
0.0
 40
64.0
  1
30
 41
0.9
 72
     1
 11
505.11867815530201
 21
-329.64658718832288
 31
0.0
  0
CIRCLE
  5
119
  8
SIZE
  6
BYBLOCK
 10
659.99999999999955
 20
540.42245800000001
 30
0.0
 40
5.0
  0
LINE
  5
11A
  8
SIZE
  6
BYBLOCK
 10
665.0
 20
540.42245800000001
 30
0.0
 11
670.0
 21
540.42245800000001
 31
0.0
  0
CIRCLE
  5
11C
  8
SIZE
  6
BYBLOCK
 10
795.0
 20
-708.36173299999996
 30
0.0
 40
5.0
  0
LINE
  5
11D
  8
SIZE
  6
BYBLOCK
 10
790.0
 20
-708.36173299999996
 30
0.0
 11
785.0
 21
-708.36173299999996
 31
0.0
  0
CIRCLE
  5
11E
  8
SIZE
  6
BYBLOCK
 10
790.0
 20
-537.30281199999979
 30
0.0
 40
5.0
  0
LINE
  5
11F
  8
SIZE
  6
BYBLOCK
 10
785.0
 20
-537.30281199999979
 30
0.0
 11
780.0
 21
-537.30281199999979
 31
0.0
  0
TEXT
  5
121
  8
SIZE
  6
CONTINUOUS
 10
1080.636203999999
 20
-74.057143000000025
 30
0.0
 40
64.0
  1
342
 50
90.0
 41
0.9
  0
CIRCLE
  5
122
  8
SIZE
  6
BYBLOCK
 10
1100.6362039999999
 20
-171.0
 30
0.0
 40
5.0
  0
LINE
  5
123
  8
SIZE
  6
BYBLOCK
 10
1100.6362039999999
 20
-166.0
 30
0.0
 11
1100.6362039999999
 21
-161.0
 31
0.0
  0
LINE
  5
125
  8
SIZE
  6
BYBLOCK
 10
1100.6362039999999
 20
-166.0
 30
0.0
 11
1100.6362039999999
 21
-161.0
 31
0.0
  0
TEXT
  5
128
  8
SIZE
  6
CONTINUOUS
 10
938.81699052702879
 20
53.117832084728413
 30
0.0
 40
64.0
  1
44
 50
90.0
 41
0.9
 72
     1
 11
938.81699052702879
 21
101.11783208472841
 31
0.0
  0
TEXT
  5
129
  8
SIZE
  6
CONTINUOUS
 10
1080.6362339999989
 20
268.32926731597018
 30
0.0
 40
64.0
  1
82
 50
90.0
 41
0.9
 72
     1
 11
1080.6362339999989
 21
314.95783874454168
 31
0.0
  0
CIRCLE
  5
12A
  8
SIZE
  6
BYBLOCK
 10
958.81697499999996
 20
171.0
 30
0.0
 40
5.0
  0
LINE
  5
12B
  8
SIZE
  6
BYBLOCK
 10
958.81697499999996
 20
166.0
 30
0.0
 11
958.81697499999996
 21
161.0
 31
0.0
  0
CIRCLE
  5
12C
  8
SIZE
  6
BYBLOCK
 10
1100.6362039999999
 20
171.0
 30
0.0
 40
5.0
  0
LINE
  5
12D
  8
SIZE
  6
BYBLOCK
 10
1100.6362039999999
 20
166.0
 30
0.0
 11
1100.6362039999999
 21
161.0
 31
0.0
  0
CIRCLE
  5
12E
  8
SIZE
  6
BYBLOCK
 10
1100.6362039999999
 20
171.0
 30
0.0
 40
5.0
  0
LINE
  5
12F
  8
SIZE
  6
BYBLOCK
 10
1100.6362039999999
 20
176.0
 30
0.0
 11
1100.6362039999999
 21
181.0
 31
0.0
  0
CIRCLE
  5
130
  8
SIZE
  6
BYBLOCK
 10
958.81697499999996
 20
215.0
 30
0.0
 40
5.0
  0
LINE
  5
131
  8
SIZE
  6
BYBLOCK
 10
958.81697499999996
 20
220.0
 30
0.0
 11
958.81697499999996
 21
225.0
 31
0.0
  0
CIRCLE
  5
132
  8
SIZE
  6
BYBLOCK
 10
1100.636233999998
 20
253.0
 30
0.0
 40
5.0
  0
LINE
  5
133
  8
SIZE
  6
BYBLOCK
 10
1100.636233999998
 20
248.0
 30
0.0
 11
1100.636233999998
 21
243.0
 31
0.0
  0
CIRCLE
  5
138
  8
SIZE
  6
BYBLOCK
 10
790.0
 20
540.42245800000001
 30
0.0
 40
5.0
  0
LINE
  5
139
  8
SIZE
  6
BYBLOCK
 10
785.0
 20
540.42245800000001
 30
0.0
 11
780.0
 21
540.42245800000001
 31
0.0
  0
TEXT
  5
1E6
  8
NOTE
  6
CONTINUOUS
 62
     4
 10
-632.91838213363235
 20
-365.48729250125382
 30
0.0
 40
64.0
  1
AH %%C12
 41
0.9
  0
TEXT
  5
1FE
  8
NOTE
  6
CONTINUOUS
 62
     4
 10
154.64046470419319
 20
651.38382412203055
 30
0.0
 40
64.0
  1
RL %%C12.7
 41
0.9
  0
TEXT
  5
1FF
  8
NOTE
  6
CONTINUOUS
 62
     4
 10
66.10512558921485
 20
516.61327000000028
 30
0.0
 40
64.0
  1
RG %%C25.4
 41
0.9
  0
LINE
  5
200
  8
NOTE
  6
CONTINUOUS
 62
     4
 10
123.0005307041928
 20
628.59384212203076
 30
0.0
 11
543.53089770419285
 21
628.59384212203076
 31
0.0
  0
LINE
  5
201
  8
NOTE
  6
CONTINUOUS
 62
     4
 10
55.616306722490272
 20
492.84262999999987
 30
0.0
 11
499.64646099999999
 21
492.84262999999987
 31
0.0
  0
LINE
  5
212
  8
SIZE
  6
BYBLOCK
 10
1100.6362335923441
 20
371.91566774077
 30
0.0
 11
1100.6362335923441
 21
253.0
 31
0.0
  0
LINE
  5
221
  8
SIZE
  6
BYBLOCK
 10
958.81697499999996
 20
161.0
 30
0.0
 11
958.81697499999996
 21
37.800094449841701
 31
0.0
  0
LINE
  5
27A
  8
SIZE
  6
CONTINUOUS
 10
770.0
 20
-170.9999999999998
 30
0.0
 11
367.36138015311292
 21
-170.9999999999998
 31
0.0
  0
LINE
  5
27B
  8
SIZE
  6
CONTINUOUS
 10
550.0
 20
-228.0
 30
0.0
 11
367.36138015311292
 21
-227.99999999999989
 31
0.0
  0
LINE
  5
27C
  8
SIZE
  6
CONTINUOUS
 10
397.36138015311292
 20
-180.99999999999989
 30
0.0
 11
397.36138015311292
 21
-218.0
 31
0.0
  0
LINE
  5
27D
  8
SIZE
  6
CONTINUOUS
 10
397.36138015311292
 20
-228.0
 30
0.0
 11
397.36138015311292
 21
-335.80094643312441
 31
0.0
  0
LINE
  5
281
  8
SIZE
  6
CONTINUOUS
 10
815.0
 20
171.0
 30
0.0
 11
988.81697499999996
 21
170.9999999999998
 31
0.0
  0
TEXT
  5
28C
  8
SIZE
  6
CONTINUOUS
 10
377.31112814278731
 20
-328.52904464513352
 30
0.0
 40
64.0
  1
57
 50
90.0
 41
0.9
 72
     1
 11
377.31112814278731
 21
-281.90047321656209
 31
0.0
  0
CIRCLE
  5
28D
  8
SIZE
  6
BYBLOCK
 62
    30
 10
397.36138015311292
 20
-228.0
 30
0.0
 40
5.0
  0
LINE
  5
28E
  8
SIZE
  6
BYBLOCK
 62
    30
 10
397.36138015311292
 20
-223.0
 30
0.0
 11
397.36138015311292
 21
-218.0
 31
0.0
  0
CIRCLE
  5
28F
  8
SIZE
  6
BYBLOCK
 62
    30
 10
397.36138015311292
 20
-170.9999999999998
 30
0.0
 40
5.0
  0
LINE
  5
290
  8
SIZE
  6
BYBLOCK
 62
    30
 10
397.36138015311292
 20
-175.99999999999989
 30
0.0
 11
397.36138015311292
 21
-180.99999999999989
 31
0.0
  0
LINE
  5
2A8
  8
DETAIL
  6
BYBLOCK
 10
604.99999999999977
 20
-179.0
 30
0.0
 11
624.99999999999989
 21
-179.0
 31
0.0
  0
LINE
  5
2A9
  8
DETAIL
  6
BYBLOCK
 10
774.99999999999955
 20
-179.0
 30
0.0
 11
795.0
 21
-179.0
 31
0.0
  0
LINE
  5
300
  8
SIZE
  6
CONTINUOUS
 62
    30
 10
815.0
 20
-179.0
 30
0.0
 11
1259.9849984214541
 21
-179.00000000000011
 31
0.0
  0
LINE
  5
301
  8
SIZE
  6
CONTINUOUS
 62
    30
 10
795.0
 20
-247.0
 30
0.0
 11
1259.9849984214541
 21
-247.00000000000011
 31
0.0
  0
LINE
  5
302
  8
SIZE
  6
CONTINUOUS
 62
    30
 10
1229.9849984214541
 20
-189.0
 30
0.0
 11
1229.9849984214541
 21
-237.00000000000011
 31
0.0
  0
LINE
  5
303
  8
SIZE
  6
CONTINUOUS
 62
    30
 10
1229.9849984214541
 20
-247.00000000000011
 30
0.0
 11
1229.9849984214541
 21
-367.9495329890143
 31
0.0
  0
LINE
  5
307
  8
SIZE
  6
CONTINUOUS
 62
    30
 10
815.0
 20
171.0
 30
0.0
 11
1259.9849984214541
 21
170.9999999999998
 31
0.0
  0
LINE
  5
308
  8
SIZE
  6
CONTINUOUS
 62
    30
 10
815.0
 20
-179.0
 30
0.0
 11
1259.9849984214541
 21
-179.00000000000011
 31
0.0
  0
LINE
  5
309
  8
SIZE
  6
CONTINUOUS
 62
    30
 10
1229.9849984214541
 20
160.9999999999998
 30
0.0
 11
1229.9849984214541
 21
-169.00000000000011
 31
0.0
  0
TEXT
  5
30D
  8
SIZE
  6
CONTINUOUS
 62
    30
 10
1213.964463107432
 20
-354.10333792307858
 30
0.0
 40
64.0
  1
68
 50
90.0
 41
0.9
 72
     1
 11
1213.964463107432
 21
-307.47476649450721
 31
0.0
  0
CIRCLE
  5
30E
  8
SIZE
  6
BYBLOCK
 62
    30
 10
1229.9849984214541
 20
-247.00000000000011
 30
0.0
 40
5.0
  0
LINE
  5
30F
  8
SIZE
  6
BYBLOCK
 62
    30
 10
1229.9849984214541
 20
-242.00000000000011
 30
0.0
 11
1229.9849984214541
 21
-237.00000000000011
 31
0.0
  0
CIRCLE
  5
310
  8
SIZE
  6
BYBLOCK
 62
    30
 10
1229.9849984214541
 20
-179.00000000000011
 30
0.0
 40
5.0
  0
LINE
  5
311
  8
SIZE
  6
BYBLOCK
 62
    30
 10
1229.9849984214541
 20
-184.00000000000011
 30
0.0
 11
1229.9849984214541
 21
-189.0
 31
0.0
  0
CIRCLE
  5
312
  8
SIZE
  6
BYBLOCK
 62
    30
 10
1229.9849984214541
 20
-179.00000000000011
 30
0.0
 40
5.0
  0
LINE
  5
313
  8
SIZE
  6
BYBLOCK
 62
    30
 10
1229.9849984214541
 20
-174.00000000000011
 30
0.0
 11
1229.9849984214541
 21
-169.00000000000011
 31
0.0
  0
TEXT
  5
314
  8
SIZE
  6
CONTINUOUS
 62
    30
 10
1213.964463107432
 20
-78.057142857142964
 30
0.0
 40
64.0
  1
350
 50
90.0
 41
0.9
 72
     1
 11
1213.964463107432
 21
-4.000000000000111
 31
0.0
  0
CIRCLE
  5
315
  8
SIZE
  6
BYBLOCK
 62
    30
 10
1229.9849984214541
 20
170.9999999999998
 30
0.0
 40
5.0
  0
LINE
  5
316
  8
SIZE
  6
BYBLOCK
 62
    30
 10
1229.9849984214541
 20
165.9999999999998
 30
0.0
 11
1229.9849984214541
 21
160.9999999999998
 31
0.0
  0
LINE
  5
34D
  8
SIZE
  6
CONTINUOUS
 62
    30
 10
628.88996999999995
 20
233.0
 30
0.0
 11
525.08700216358125
 21
233.0
 31
0.0
  0
LINE
  5
34E
  8
SIZE
  6
CONTINUOUS
 62
    30
 10
628.88999999999965
 20
253.0
 30
0.0
 11
525.08703216358094
 21
253.0
 31
0.0
  0
LINE
  5
34F
  8
SIZE
  6
CONTINUOUS
 62
    30
 10
555.08700216358125
 20
223.0
 30
0.0
 11
555.08700216358125
 21
213.0
 31
0.0
  0
LINE
  5
350
  8
SIZE
  6
CONTINUOUS
 62
    30
 10
555.08703216358094
 20
263.0
 30
0.0
 11
555.08703216358094
 21
355.46571428571428
 31
0.0
  0
LINE
  5
351
  8
SIZE
  6
CONTINUOUS
 62
    30
 10
555.08700216358125
 20
233.0
 30
0.0
 11
555.08700216358125
 21
253.0
 31
0.0
  0
TEXT
  5
355
  8
SIZE
  6
CONTINUOUS
 62
    30
 10
537.66769223533595
 20
262.6042857142856
 30
0.0
 40
64.0
  1
20
 50
90.0
 41
0.9
 72
     1
 11
537.66769223533595
 21
309.23285714285697
 31
0.0
  0
CIRCLE
  5
356
  8
SIZE
  6
BYBLOCK
 62
    30
 10
555.08703216358094
 20
253.0
 30
0.0
 40
5.0
  0
LINE
  5
357
  8
SIZE
  6
BYBLOCK
 62
    30
 10
555.08703216358094
 20
258.0
 30
0.0
 11
555.08703216358094
 21
263.0
 31
0.0
  0
CIRCLE
  5
358
  8
SIZE
  6
BYBLOCK
 62
    30
 10
555.08700216358125
 20
233.0
 30
0.0
 40
5.0
  0
LINE
  5
359
  8
SIZE
  6
BYBLOCK
 62
    30
 10
555.08700216358125
 20
228.0
 30
0.0
 11
555.08700216358125
 21
223.0
 31
0.0
  0
LINE
  5
68E
  8
DETAIL
  6
BYBLOCK
 10
-735.00000000000011
 20
-179.0
 30
0.0
 11
-590.0
 21
-179.0
 31
0.0
  0
LINE
  5
68F
  8
DETAIL
  6
BYBLOCK
 10
450.00000640446518
 20
-179.0
 30
0.0
 11
575.0
 21
-179.0
 31
0.0
  0
LINE
  5
690
  8
DETAIL
  6
BYBLOCK
 10
-590.0
 20
-248.0
 30
0.0
 11
-210.0
 21
-248.0
 31
0.0
  0
LINE
  5
691
  8
DETAIL
  6
CONTINUOUS
 10
-590.0
 20
-171.0
 30
0.0
 11
-590.0
 21
-248.0
 31
0.0
  0
LINE
  5
692
  8
DETAIL
  6
CONTINUOUS
 10
-210.0
 20
-171.0
 30
0.0
 11
-210.0
 21
-248.0
 31
0.0
  0
LINE
  5
694
  8
DETAIL
  6
CONTINUOUS
 10
70.0
 20
-171.00000128055581
 30
0.0
 11
70.0
 21
-248.0
 31
0.0
  0
LINE
  5
696
  8
DETAIL
  6
BYBLOCK
 10
70.0
 20
-179.0
 30
0.0
 11
-210.0
 21
-178.99999356438639
 31
0.0
  0
LINE
  5
8A1
  8
DETAIL
  6
BYBLOCK
 10
70.000006404465253
 20
-248.0
 30
0.0
 11
450.00000640446518
 21
-248.0
 31
0.0
  0
LINE
  5
8A2
  8
DETAIL
  6
CONTINUOUS
 10
450.00000640446518
 20
-170.99999176996241
 30
0.0
 11
450.00000640446518
 21
-248.0
 31
0.0
  0
LINE
  5
99A
  8
DETAIL
  6
BYBLOCK
 10
729.35002999999972
 20
215.0
 30
0.0
 11
729.35002999999972
 21
171.0
 31
0.0
  0
LINE
  5
99B
  8
DETAIL
  6
BYBLOCK
 10
716.65002999999956
 20
215.0
 30
0.0
 11
716.65002999999956
 21
171.0
 31
0.0
  0
LINE
  5
99C
  8
DETAIL
  6
BYBLOCK
 10
716.65002999999956
 20
205.0
 30
0.0
 11
729.35002999999972
 21
205.0
 31
0.0
  0
LINE
  5
99D
  8
DETAIL
  6
BYBLOCK
 10
716.65002999999956
 20
215.0
 30
0.0
 11
729.35002999999972
 21
215.0
 31
0.0
  0
LINE
  5
99E
  8
NOTE
  6
CONTINUOUS
 10
723.00002999999981
 20
215.0
 30
0.0
 11
543.53089770419285
 21
628.59384212203076
 31
0.0
  0
LINE
  5
9A0
  8
NOTE
  6
BYBLOCK
 10
723.00002999999981
 20
235.0
 30
0.0
 11
723.00002999999981
 21
195.0
 31
0.0
  0
LINE
  5
9A1
  8
NOTE
  6
BYBLOCK
 10
743.0000299999997
 20
215.0
 30
0.0
 11
703.00002999999947
 21
215.0
 31
0.0
  0
LINE
  5
9AA
  8
NOTE
  6
CONTINUOUS
 10
697.25507324211287
 20
245.6136767798335
 30
0.0
 11
723.00002999999936
 21
214.99999999999989
 31
0.0
  0
LINE
  5
9AB
  8
NOTE
  6
CONTINUOUS
 10
723.00002999999936
 20
214.99999999999989
 30
0.0
 11
716.01108147474145
 21
254.3846997843323
 31
0.0
  0
LINE
  5
9F0
  8
SIZE
  6
CONTINUOUS
 62
    30
 10
749.35002999999972
 20
205.0
 30
0.0
 11
914.05578633479286
 21
205.0
 31
0.0
  0
LINE
  5
9F1
  8
SIZE
  6
CONTINUOUS
 62
    30
 10
763.00002999999981
 20
215.0
 30
0.0
 11
914.05578633479286
 21
215.0
 31
0.0
  0
LINE
  5
9F2
  8
SIZE
  6
CONTINUOUS
 62
    30
 10
884.05578633479297
 20
195.0
 30
0.0
 11
884.05578633479297
 21
184.99999999999989
 31
0.0
  0
LINE
  5
9F3
  8
SIZE
  6
CONTINUOUS
 62
    30
 10
884.05578633479297
 20
225.0
 30
0.0
 11
884.0557863347932
 21
359.4591350945775
 31
0.0
  0
LINE
  5
9F4
  8
SIZE
  6
CONTINUOUS
 62
    30
 10
884.05578633479297
 20
205.0
 30
0.0
 11
884.05578633479297
 21
215.0
 31
0.0
  0
TEXT
  5
9FA
  8
SIZE
  6
CONTINUOUS
 62
    30
 10
872.85002054893266
 20
262.05986512830509
 30
0.0
 40
64.0
  1
10
 50
90.0
 41
0.9
 72
     1
 11
872.85002054893266
 21
303.2027222711622
 31
0.0
  0
CIRCLE
  5
9FB
  8
SIZE
  6
BYBLOCK
 62
    30
 10
884.05578633479297
 20
215.0
 30
0.0
 40
5.0
  0
LINE
  5
9FC
  8
SIZE
  6
BYBLOCK
 62
    30
 10
884.05578633479297
 20
220.0
 30
0.0
 11
884.05578633479297
 21
225.0
 31
0.0
  0
CIRCLE
  5
9FD
  8
SIZE
  6
BYBLOCK
 62
    30
 10
884.05578633479297
 20
205.0
 30
0.0
 40
5.0
  0
LINE
  5
9FE
  8
SIZE
  6
BYBLOCK
 62
    30
 10
884.05578633479297
 20
200.0
 30
0.0
 11
884.05578633479297
 21
195.0
 31
0.0
  0
LINE
  5
A4B
  8
SIZE
  6
CONTINUOUS
 62
    30
 10
723.00002999999981
 20
255.0
 30
0.0
 11
723.00002999999981
 21
471.66470430723348
 31
0.0
  0
LINE
  5
A4C
  8
SIZE
  6
CONTINUOUS
 62
    30
 10
790.0
 20
191.0
 30
0.0
 11
790.0
 21
471.66470430723348
 31
0.0
  0
LINE
  5
A4D
  8
SIZE
  6
CONTINUOUS
 62
    30
 10
733.00002999999981
 20
441.66470430723348
 30
0.0
 11
780.0
 21
441.66470430723348
 31
0.0
  0
LINE
  5
A4E
  8
SIZE
  6
CONTINUOUS
 62
    30
 10
790.0
 20
441.66470430723348
 30
0.0
 11
910.11819802610785
 21
441.66470430723348
 31
0.0
  0
TEXT
  5
A52
  8
SIZE
  6
CONTINUOUS
 62
    30
 10
817.20760928449988
 20
455.10843801982622
 30
0.0
 40
64.0
  1
67
 41
0.9
 72
     1
 11
863.83618071307114
 21
455.10843801982622
 31
0.0
  0
CIRCLE
  5
A53
  8
SIZE
  6
BYBLOCK
 62
    30
 10
790.0
 20
441.66470430723348
 30
0.0
 40
5.0
  0
LINE
  5
A54
  8
SIZE
  6
BYBLOCK
 62
    30
 10
785.0
 20
441.66470430723348
 30
0.0
 11
780.0
 21
441.66470430723348
 31
0.0
  0
CIRCLE
  5
A55
  8
SIZE
  6
BYBLOCK
 62
    30
 10
723.00002999999981
 20
441.66470430723348
 30
0.0
 40
5.0
  0
LINE
  5
A56
  8
SIZE
  6
BYBLOCK
 62
    30
 10
728.00002999999981
 20
441.66470430723348
 30
0.0
 11
733.00002999999981
 21
441.66470430723348
 31
0.0
  0
LINE
  5
B79
  8
DETAIL
  6
BYBLOCK
 10
672.69995753649891
 20
253.00006351314579
 30
0.0
 11
672.69995753649891
 21
171.00006351314579
 31
0.0
  0
LINE
  5
B7A
  8
DETAIL
  6
BYBLOCK
 10
647.29995753649882
 20
253.00006351314579
 30
0.0
 11
647.29995753649882
 21
171.00006351314579
 31
0.0
  0
LINE
  5
B7B
  8
DETAIL
  6
BYBLOCK
 10
647.29998753649852
 20
233.00006351314579
 30
0.0
 11
672.69995753649903
 21
233.00006351314579
 31
0.0
  0
LINE
  5
B7C
  8
DETAIL
  6
BYBLOCK
 10
647.29995753649882
 20
253.00006351314579
 30
0.0
 11
672.69995753649891
 21
253.00006351314579
 31
0.0
  0
ENDSEC
  0
EOF
