  0
SECTION
  2
HEADER
  9
$ACADVER
  1
AC1009
  9
$INSBASE
 10
0.0
 20
0.0
 30
0.0
  9
$EXTMIN
 10
-577.820733
 20
-474.716779
 30
0.0
  9
$EXTMAX
 10
1161.297509
 20
1892.810771
 30
0.0
  9
$LIMMIN
 10
-3837.000175
 20
-3000.109539
  9
$LIMMAX
 10
7319.256881
 20
4045.223003
  9
$ORTHOMODE
 70
     0
  9
$REGENMODE
 70
     1
  9
$FILLMODE
 70
     1
  9
$QTEXTMODE
 70
     0
  9
$MIRRTEXT
 70
     0
  9
$DRAGMODE
 70
     2
  9
$LTSCALE
 40
20.0
  9
$OSMODE
 70
    37
  9
$ATTMODE
 70
     1
  9
$TEXTSIZE
 40
64.0
  9
$TRACEWID
 40
0.05
  9
$TEXTSTYLE
  7
STANDARD
  9
$CLAYER
  8
0
  9
$CELTYPE
  6
CONTINUOUS
  9
$CECOLOR
 62
     7
  9
$DIMSCALE
 40
1.0
  9
$DIMASZ
 40
10.0
  9
$DIMEXO
 40
20.0
  9
$DIMDLI
 40
200.0
  9
$DIMRND
 40
0.0
  9
$DIMDLE
 40
0.0
  9
$DIMEXE
 40
30.0
  9
$DIMTP
 40
0.0
  9
$DIMTM
 40
0.0
  9
$DIMTXT
 40
64.0
  9
$DIMCEN
 40
0.0
  9
$DIMTSZ
 40
0.0
  9
$DIMTOL
 70
     0
  9
$DIMLIM
 70
     0
  9
$DIMTIH
 70
     0
  9
$DIMTOH
 70
     0
  9
$DIMSE1
 70
     0
  9
$DIMSE2
 70
     0
  9
$DIMTAD
 70
     1
  9
$DIMZIN
 70
     8
  9
$DIMBLK
  1

  9
$DIMASO
 70
     1
  9
$DIMSHO
 70
     0
  9
$DIMPOST
  1

  9
$DIMAPOST
  1

  9
$DIMALT
 70
     0
  9
$DIMALTD
 70
     2
  9
$DIMALTF
 40
25.4
  9
$DIMLFAC
 40
1.0
  9
$DIMTOFL
 70
     1
  9
$DIMTVP
 40
0.0
  9
$DIMTIX
 70
     1
  9
$DIMSOXD
 70
     0
  9
$DIMSAH
 70
     1
  9
$DIMBLK1
  1
_DOTBLANK
  9
$DIMBLK2
  1
_DOTBLANK
  9
$DIMSTYLE
  2
STANDARD
  9
$DIMCLRD
 70
     0
  9
$DIMCLRE
 70
     0
  9
$DIMCLRT
 70
     0
  9
$DIMTFAC
 40
1.0
  9
$DIMGAP
 40
0.09
  9
$LUNITS
 70
     2
  9
$LUPREC
 70
     4
  9
$SKETCHINC
 40
0.1
  9
$FILLETRAD
 40
10.0
  9
$AUNITS
 70
     1
  9
$AUPREC
 70
     3
  9
$MENU
  1
ACAD
  9
$ELEVATION
 40
0.0
  9
$PELEVATION
 40
0.0
  9
$THICKNESS
 40
0.0
  9
$LIMCHECK
 70
     0
  9
$BLIPMODE
 70
     0
  9
$CHAMFERA
 40
0.0
  9
$CHAMFERB
 40
0.0
  9
$SKPOLY
 70
     0
  9
$TDCREATE
 40
2450330.439931
  9
$TDUPDATE
 40
2452873.674833
  9
$TDINDWG
 40
1.105984
  9
$TDUSRTIMER
 40
1.105984
  9
$USRTIMER
 70
     1
  9
$ANGBASE
 50
0.0
  9
$ANGDIR
 70
     0
  9
$PDMODE
 70
     3
  9
$PDSIZE
 40
-2.0
  9
$PLINEWID
 40
0.0
  9
$COORDS
 70
     1
  9
$SPLFRAME
 70
     0
  9
$SPLINETYPE
 70
     6
  9
$SPLINESEGS
 70
     8
  9
$ATTDIA
 70
     0
  9
$ATTREQ
 70
     1
  9
$HANDLING
 70
     1
  9
$HANDSEED
  5
24B
  9
$SURFTAB1
 70
     6
  9
$SURFTAB2
 70
     6
  9
$SURFTYPE
 70
     6
  9
$SURFU
 70
     6
  9
$SURFV
 70
     6
  9
$UCSNAME
  2

  9
$UCSORG
 10
0.0
 20
0.0
 30
0.0
  9
$UCSXDIR
 10
1.0
 20
0.0
 30
0.0
  9
$UCSYDIR
 10
0.0
 20
1.0
 30
0.0
  9
$PUCSNAME
  2

  9
$PUCSORG
 10
0.0
 20
0.0
 30
0.0
  9
$PUCSXDIR
 10
1.0
 20
0.0
 30
0.0
  9
$PUCSYDIR
 10
0.0
 20
1.0
 30
0.0
  9
$USERI1
 70
     0
  9
$USERI2
 70
     0
  9
$USERI3
 70
     0
  9
$USERI4
 70
     0
  9
$USERI5
 70
     0
  9
$USERR1
 40
20.0
  9
$USERR2
 40
0.0
  9
$USERR3
 40
0.0
  9
$USERR4
 40
0.0
  9
$USERR5
 40
0.0
  9
$WORLDVIEW
 70
     1
  9
$SHADEDGE
 70
     3
  9
$SHADEDIF
 70
    70
  9
$TILEMODE
 70
     1
  9
$MAXACTVP
 70
    48
  9
$PLIMCHECK
 70
     0
  9
$PEXTMIN
 10
1.000000E+020
 20
1.000000E+020
 30
1.000000E+020
  9
$PEXTMAX
 10
-1.000000E+020
 20
-1.000000E+020
 30
-1.000000E+020
  9
$PLIMMIN
 10
0.0
 20
0.0
  9
$PLIMMAX
 10
12.0
 20
9.0
  9
$UNITMODE
 70
     0
  9
$VISRETAIN
 70
     1
  9
$PLINEGEN
 70
     0
  9
$PSLTSCALE
 70
     1
  0
ENDSEC
  0
SECTION
  2
TABLES
  0
TABLE
  2
VPORT
 70
     2
  0
VPORT
  2
*ACTIVE
 70
     0
 10
0.0
 20
0.0
 11
1.0
 21
1.0
 12
2216.208889
 22
522.556732
 13
0.0
 23
0.0
 14
50.0
 24
50.0
 15
100.0
 25
100.0
 16
0.0
 26
0.0
 36
1.0
 17
0.0
 27
0.0
 37
0.0
 40
7045.332542
 41
1.71836
 42
50.0
 43
0.0
 44
0.0
 50
0.0
 51
0.0
 71
     0
 72
  1000
 73
     1
 74
     0
 75
     0
 76
     0
 77
     0
 78
     0
  0
ENDTAB
  0
TABLE
  2
LTYPE
 70
     2
  0
LTYPE
  2
CONTINUOUS
 70
     0
  3
実線
 72
    65
 73
     0
 40
0.0
  0
LTYPE
  2
DASHDOT
 70
     0
  3
____ _ ____ _ ____ _ ____ _ ____ _ ____ _ ____
 72
    65
 73
     4
 40
5.5
 49
4.0
 49
-0.6
 49
0.3
 49
-0.6
  0
ENDTAB
  0
TABLE
  2
LAYER
 70
    12
  0
LAYER
  2
0
 70
     0
 62
     7
  6
CONTINUOUS
  0
LAYER
  2
OUTLINE
 70
     0
 62
     3
  6
CONTINUOUS
  0
LAYER
  2
DETAIL
 70
     0
 62
     5
  6
CONTINUOUS
  0
LAYER
  2
BASIS
 70
     0
 62
     6
  6
DASHDOT
  0
LAYER
  2
SIZE
 70
     0
 62
    30
  6
CONTINUOUS
  0
LAYER
  2
NOTE
 70
     0
 62
     4
  6
CONTINUOUS
  0
LAYER
  2
ARRANGE
 70
     0
 62
     1
  6
CONTINUOUS
  0
LAYER
  2
FIX
 70
     0
 62
    11
  6
CONTINUOUS
  0
LAYER
  2
SERVICESPACE
 70
     0
 62
     2
  6
DASHDOT
  0
LAYER
  2
ETC
 70
     0
 62
    61
  6
CONTINUOUS
  0
LAYER
  2
SYMBOLLINE
 70
     0
 62
    15
  6
CONTINUOUS
  0
LAYER
  2
DEFPOINTS
 70
     0
 62
     7
  6
CONTINUOUS
  0
ENDTAB
  0
TABLE
  2
STYLE
 70
     2
  0
STYLE
  2
STANDARD
 70
     0
 40
0.0
 41
0.9
 50
0.0
 71
     0
 42
64.0
  3
SIMPLEX
  4
BIGFONT
  0
STYLE
  2
STANDARD1
 70
     0
 40
0.0
 41
1.0
 50
0.0
 71
     0
 42
64.0
  3
MONOTXT
  4
BIGFONT
  0
ENDTAB
  0
TABLE
  2
VIEW
 70
     1
  0
VIEW
  2
ALL
 70
     0
 40
9000.0
 10
241.506647
 20
0.0
 41
12483.01
 11
0.0
 21
0.0
 31
1.0
 12
0.0
 22
0.0
 32
0.0
 42
50.0
 43
0.0
 44
0.0
 50
0.0
 71
     0
  0
ENDTAB
  0
TABLE
  2
UCS
 70
     0
  0
ENDTAB
  0
TABLE
  2
APPID
 70
     1
  0
APPID
  2
ACAD
 70
     0
  0
ENDTAB
  0
TABLE
  2
DIMSTYLE
 70
     1
  0
DIMSTYLE
  2
STANDARD
 70
     0
  3

  4

  5

  6

  7

 40
1.0
 41
0.18
 42
0.0625
 43
0.38
 44
0.18
 45
0.0
 46
0.0
 47
0.0
 48
0.0
140
0.18
141
0.09
142
0.0
143
25.4
144
1.0
145
0.0
146
1.0
147
0.09
 71
     0
 72
     0
 73
     1
 74
     1
 75
     0
 76
     0
 77
     0
 78
     0
170
     0
171
     2
172
     0
173
     0
174
     0
175
     0
176
     0
177
     0
178
     0
  0
ENDTAB
  0
ENDSEC
  0
SECTION
  2
BLOCKS
  0
BLOCK
  8
0
  2
$MODEL_SPACE
 70
     0
 10
0.0
 20
0.0
 30
0.0
  3
$MODEL_SPACE
  1

  0
ENDBLK
  5
1A
  8
0
  0
BLOCK
 67
     1
  8
0
  2
$PAPER_SPACE
 70
     0
 10
0.0
 20
0.0
 30
0.0
  3
$PAPER_SPACE
  1

  0
ENDBLK
  5
17
 67
     1
  8
0
  0
BLOCK
  8
0
  2
_DOTBLANK
 70
     0
 10
0.0
 20
0.0
 30
0.0
  3
_DOTBLANK
  1

  0
CIRCLE
  5
32
  8
0
  6
CONTINUOUS
 62
     7
 10
0.0
 20
0.0
 30
0.0
 40
0.5
  0
LINE
  5
33
  8
0
  6
CONTINUOUS
 62
     7
 10
-0.5
 20
0.0
 30
0.0
 11
-1.0
 21
0.0
 31
0.0
  0
ENDBLK
  5
34
  8
0
  0
ENDSEC
  0
SECTION
  2
ENTITIES
  0
LINE
  5
35
  8
SIZE
  6
CONTINUOUS
 62
    30
 10
-60.0
 20
323.0
 30
0.0
 11
-60.0
 21
-313.765853
 31
0.0
  0
LINE
  5
36
  8
SIZE
  6
CONTINUOUS
 62
    30
 10
-210.0
 20
110.0
 30
0.0
 11
-210.0
 21
-313.765853
 31
0.0
  0
LINE
  5
37
  8
SIZE
  6
CONTINUOUS
 62
    30
 10
-70.0
 20
-283.765853
 30
0.0
 11
-200.0
 21
-283.765853
 31
0.0
  0
LINE
  5
38
  8
SIZE
  6
CONTINUOUS
 62
    30
 10
-210.0
 20
-283.765853
 30
0.0
 11
-417.142857
 21
-283.765853
 31
0.0
  0
CIRCLE
  5
39
  8
SIZE
  6
CONTINUOUS
 62
    30
 10
-60.0
 20
-283.765853
 30
0.0
 40
5.0
  0
LINE
  5
3A
  8
SIZE
  6
CONTINUOUS
 62
    30
 10
-65.0
 20
-283.765853
 30
0.0
 11
-70.0
 21
-283.765853
 31
0.0
  0
CIRCLE
  5
3B
  8
SIZE
  6
CONTINUOUS
 62
    30
 10
-210.0
 20
-283.765853
 30
0.0
 40
5.0
  0
LINE
  5
3C
  8
SIZE
  6
CONTINUOUS
 62
    30
 10
-205.0
 20
-283.765853
 30
0.0
 11
-200.0
 21
-283.765853
 31
0.0
  0
TEXT
  5
3D
  8
SIZE
  6
CONTINUOUS
 62
    30
 10
-387.142857
 20
-253.765853
 30
0.0
 40
64.0
  1
150
 41
0.9
 72
     1
 11
-318.571429
 21
-253.765853
 31
0.0
  0
POINT
  5
3E
  8
DEFPOINTS
  6
CONTINUOUS
 62
     7
 10
-60.0
 20
343.0
 30
0.0
  0
POINT
  5
3F
  8
DEFPOINTS
  6
CONTINUOUS
 62
     7
 10
-210.0
 20
130.0
 30
0.0
  0
POINT
  5
40
  8
DEFPOINTS
  6
CONTINUOUS
 62
     7
 10
-210.0
 20
-283.765853
 30
0.0
  0
LINE
  5
41
  8
SIZE
  6
CONTINUOUS
 62
    30
 10
-135.0
 20
288.0
 30
0.0
 11
-135.0
 21
-186.369563
 31
0.0
  0
LINE
  5
42
  8
SIZE
  6
CONTINUOUS
 62
    30
 10
-210.0
 20
130.0
 30
0.0
 11
-210.0
 21
-186.369563
 31
0.0
  0
LINE
  5
43
  8
SIZE
  6
CONTINUOUS
 62
    30
 10
-125.0
 20
-156.369563
 30
0.0
 11
-115.0
 21
-156.369563
 31
0.0
  0
LINE
  5
44
  8
SIZE
  6
CONTINUOUS
 62
    30
 10
-220.0
 20
-156.369563
 30
0.0
 11
-383.257143
 21
-156.369563
 31
0.0
  0
LINE
  5
45
  8
SIZE
  6
CONTINUOUS
 62
    30
 10
-135.0
 20
-156.369563
 30
0.0
 11
-210.0
 21
-156.369563
 31
0.0
  0
CIRCLE
  5
46
  8
SIZE
  6
CONTINUOUS
 62
    30
 10
-135.0
 20
-156.369563
 30
0.0
 40
5.0
  0
LINE
  5
47
  8
SIZE
  6
CONTINUOUS
 62
    30
 10
-130.0
 20
-156.369563
 30
0.0
 11
-125.0
 21
-156.369563
 31
0.0
  0
CIRCLE
  5
48
  8
SIZE
  6
CONTINUOUS
 62
    30
 10
-210.0
 20
-156.369563
 30
0.0
 40
5.0
  0
LINE
  5
49
  8
SIZE
  6
CONTINUOUS
 62
    30
 10
-215.0
 20
-156.369563
 30
0.0
 11
-220.0
 21
-156.369563
 31
0.0
  0
TEXT
  5
4A
  8
SIZE
  6
CONTINUOUS
 62
    30
 10
-353.257143
 20
-126.369563
 30
0.0
 40
64.0
  1
75
 41
0.9
 72
     1
 11
-306.628571
 21
-126.369563
 31
0.0
  0
POINT
  5
4B
  8
DEFPOINTS
  6
CONTINUOUS
 62
     7
 10
-135.0
 20
308.0
 30
0.0
  0
POINT
  5
4C
  8
DEFPOINTS
  6
CONTINUOUS
 62
     7
 10
-210.0
 20
150.0
 30
0.0
  0
POINT
  5
4D
  8
DEFPOINTS
  6
CONTINUOUS
 62
     7
 10
-210.0
 20
-156.369563
 30
0.0
  0
LINE
  5
4E
  8
SIZE
  6
CONTINUOUS
 62
    30
 10
585.772705
 20
1365.0
 30
0.0
 11
585.772705
 21
10.0
 31
0.0
  0
LINE
  5
4F
  8
OUTLINE
  6
CONTINUOUS
 62
     3
 10
-161.3
 20
2.5
 30
0.0
 11
-161.3
 21
146.0
 31
0.0
  0
LINE
  5
50
  8
OUTLINE
  6
CONTINUOUS
 62
     3
 10
159.3
 20
2.5
 30
0.0
 11
159.3
 21
147.7
 31
0.0
  0
LINE
  5
51
  8
SIZE
  6
CONTINUOUS
 62
    30
 10
416.89049
 20
10.0
 30
0.0
 11
416.89049
 21
1250.0
 31
0.0
  0
LINE
  5
52
  8
SIZE
  6
CONTINUOUS
 62
    30
 10
-448.430164
 20
331.0
 30
0.0
 11
-448.430164
 21
12.0
 31
0.0
  0
LINE
  5
53
  8
DETAIL
  6
CONTINUOUS
 62
     5
 10
-161.3
 20
2.5
 30
0.0
 11
-161.3
 21
147.5
 31
0.0
  0
LINE
  5
54
  8
DETAIL
  6
CONTINUOUS
 62
     5
 10
-159.0
 20
1.6
 30
0.0
 11
-159.0
 21
148.4
 31
0.0
  0
LINE
  5
55
  8
DETAIL
  6
CONTINUOUS
 62
     5
 10
157.0
 20
1.6
 30
0.0
 11
157.0
 21
148.4
 31
0.0
  0
LINE
  5
56
  8
DETAIL
  6
CONTINUOUS
 62
     5
 10
159.3
 20
2.5
 30
0.0
 11
159.3
 21
147.5
 31
0.0
  0
LINE
  5
57
  8
SIZE
  6
CONTINUOUS
 62
    30
 10
-356.731456
 20
12.0
 30
0.0
 11
-356.731456
 21
316.0
 31
0.0
  0
LINE
  5
58
  8
BASIS
  6
DASHDOT
 62
     6
 10
0.0
 20
1451.715119
 30
0.0
 11
0.0
 21
-64.244212
 31
0.0
  0
TEXT
  5
59
  8
SIZE
  6
CONTINUOUS
 62
    30
 10
-366.55479
 20
85.081027
 30
0.0
 40
64.0
  1
328
 50
90.0
 41
0.9
 72
     1
 11
-366.55479
 21
159.13817
 31
0.0
  0
LINE
  5
5A
  8
SIZE
  6
CONTINUOUS
 62
    30
 10
227.0
 20
0.0
 30
0.0
 11
615.772705
 21
0.0
 31
0.0
  0
LINE
  5
5B
  8
SIZE
  6
CONTINUOUS
 62
    30
 10
227.0
 20
0.0
 30
0.0
 11
446.89049
 21
0.0
 31
0.0
  0
LINE
  5
5C
  8
NOTE
  6
CONTINUOUS
 62
     4
 10
187.0
 20
0.0
 30
0.0
 11
340.647247
 21
-200.495814
 31
0.0
  0
LINE
  5
5D
  8
SIZE
  6
CONTINUOUS
 62
    30
 10
-183.0
 20
-40.0
 30
0.0
 11
-183.0
 21
-474.672115
 31
0.0
  0
LINE
  5
5E
  8
SIZE
  6
CONTINUOUS
 62
    30
 10
-209.0
 20
-20.0
 30
0.0
 11
-209.0
 21
-474.672115
 31
0.0
  0
LINE
  5
5F
  8
SIZE
  6
CONTINUOUS
 62
    30
 10
-173.0
 20
-444.672115
 30
0.0
 11
-163.0
 21
-444.672115
 31
0.0
  0
LINE
  5
60
  8
SIZE
  6
CONTINUOUS
 62
    30
 10
-219.0
 20
-444.672115
 30
0.0
 11
-379.514286
 21
-444.672115
 31
0.0
  0
LINE
  5
61
  8
SIZE
  6
CONTINUOUS
 62
    30
 10
-183.0
 20
-444.672115
 30
0.0
 11
-209.0
 21
-444.672115
 31
0.0
  0
CIRCLE
  5
62
  8
SIZE
  6
CONTINUOUS
 62
    30
 10
-183.0
 20
-444.672115
 30
0.0
 40
5.0
  0
LINE
  5
63
  8
SIZE
  6
CONTINUOUS
 62
    30
 10
-178.0
 20
-444.672115
 30
0.0
 11
-173.0
 21
-444.672115
 31
0.0
  0
CIRCLE
  5
64
  8
SIZE
  6
CONTINUOUS
 62
    30
 10
-209.0
 20
-444.672115
 30
0.0
 40
5.0
  0
LINE
  5
65
  8
SIZE
  6
CONTINUOUS
 62
    30
 10
-214.0
 20
-444.672115
 30
0.0
 11
-219.0
 21
-444.672115
 31
0.0
  0
TEXT
  5
66
  8
SIZE
  6
CONTINUOUS
 62
    30
 10
-349.514286
 20
-414.672115
 30
0.0
 40
64.0
  1
26
 41
0.9
 72
     1
 11
-304.257143
 21
-414.672115
 31
0.0
  0
POINT
  5
67
  8
DEFPOINTS
  6
CONTINUOUS
 62
     7
 10
-183.0
 20
-20.0
 30
0.0
  0
POINT
  5
68
  8
DEFPOINTS
  6
CONTINUOUS
 62
     7
 10
-209.0
 20
0.0
 30
0.0
  0
POINT
  5
69
  8
DEFPOINTS
  6
CONTINUOUS
 62
     7
 10
-209.0
 20
-444.672115
 30
0.0
  0
LINE
  5
6A
  8
SIZE
  6
CONTINUOUS
 62
    30
 10
-214.0
 20
0.0
 30
0.0
 11
-357.631456
 21
0.0
 31
0.0
  0
POINT
  5
6B
  8
DEFPOINTS
  6
CONTINUOUS
 62
     7
 10
-448.430164
 20
0.0
 30
0.0
  0
LINE
  5
6C
  8
SIZE
  6
CONTINUOUS
 62
    30
 10
-448.430164
 20
6.0
 30
0.0
 11
-448.430164
 21
12.0
 31
0.0
  0
CIRCLE
  5
6D
  8
SIZE
  6
CONTINUOUS
 62
    30
 10
-448.430164
 20
0.0
 30
0.0
 40
6.0
  0
POINT
  5
6E
  8
DEFPOINTS
  6
CONTINUOUS
 62
     7
 10
-357.631456
 20
0.0
 30
0.0
  0
LINE
  5
6F
  8
SIZE
  6
CONTINUOUS
 62
    30
 10
-356.731456
 20
6.0
 30
0.0
 11
-356.731456
 21
12.0
 31
0.0
  0
CIRCLE
  5
70
  8
SIZE
  6
CONTINUOUS
 62
    30
 10
-356.731456
 20
0.0
 30
0.0
 40
6.0
  0
LINE
  5
71
  8
SIZE
  6
CONTINUOUS
 62
    30
 10
-362.631456
 20
0.0
 30
0.0
 11
-449.330164
 21
0.0
 31
0.0
  0
LINE
  5
72
  8
SIZE
  6
CONTINUOUS
 62
    30
 10
-183.0
 20
-40.0
 30
0.0
 11
-183.0
 21
-474.716779
 31
0.0
  0
LINE
  5
73
  8
SIZE
  6
CONTINUOUS
 62
    30
 10
187.0
 20
-40.0
 30
0.0
 11
187.0
 21
-474.716779
 31
0.0
  0
LINE
  5
74
  8
SIZE
  6
CONTINUOUS
 62
    30
 10
-173.0
 20
-444.716779
 30
0.0
 11
177.0
 21
-444.716779
 31
0.0
  0
CIRCLE
  5
75
  8
SIZE
  6
CONTINUOUS
 62
    30
 10
-183.0
 20
-444.716779
 30
0.0
 40
5.0
  0
LINE
  5
76
  8
SIZE
  6
CONTINUOUS
 62
    30
 10
-178.0
 20
-444.716779
 30
0.0
 11
-173.0
 21
-444.716779
 31
0.0
  0
CIRCLE
  5
77
  8
SIZE
  6
CONTINUOUS
 62
    30
 10
187.0
 20
-444.716779
 30
0.0
 40
5.0
  0
LINE
  5
78
  8
SIZE
  6
CONTINUOUS
 62
    30
 10
182.0
 20
-444.716779
 30
0.0
 11
177.0
 21
-444.716779
 31
0.0
  0
TEXT
  5
79
  8
SIZE
  6
CONTINUOUS
 62
    30
 10
-72.057143
 20
-414.716779
 30
0.0
 40
64.0
  1
370
 41
0.9
 72
     1
 11
2.0
 21
-414.716779
 31
0.0
  0
POINT
  5
7A
  8
DEFPOINTS
  6
CONTINUOUS
 62
     7
 10
-183.0
 20
-20.0
 30
0.0
  0
POINT
  5
7B
  8
DEFPOINTS
  6
CONTINUOUS
 62
     7
 10
187.0
 20
-20.0
 30
0.0
  0
POINT
  5
7C
  8
DEFPOINTS
  6
CONTINUOUS
 62
     7
 10
187.0
 20
-444.716779
 30
0.0
  0
CIRCLE
  5
7D
  8
ARRANGE
  6
CONTINUOUS
 62
     1
 10
0.0
 20
0.0
 30
0.0
 40
40.0
  0
LINE
  5
7E
  8
OUTLINE
  6
CONTINUOUS
 62
     3
 10
155.4
 20
0.0
 30
0.0
 11
-157.4
 21
0.0
 31
0.0
  0
POINT
  5
7F
  8
ARRANGE
  6
CONTINUOUS
 62
     1
 10
0.0
 20
0.0
 30
0.0
  0
LINE
  5
80
  8
DETAIL
  6
CONTINUOUS
 62
     5
 10
155.4
 20
0.0
 30
0.0
 11
-157.4
 21
0.0
 31
0.0
  0
LINE
  5
81
  8
OUTLINE
  6
CONTINUOUS
 62
     3
 10
-209.0
 20
0.0
 30
0.0
 11
-209.0
 21
2.3
 31
0.0
  0
LINE
  5
82
  8
OUTLINE
  6
CONTINUOUS
 62
     3
 10
-159.0
 20
1.6
 30
0.0
 11
-157.4
 21
1.6
 31
0.0
  0
LINE
  5
83
  8
OUTLINE
  6
CONTINUOUS
 62
     3
 10
-157.4
 20
0.0
 30
0.0
 11
-157.4
 21
1.6
 31
0.0
  0
ARC
  5
84
  8
OUTLINE
  6
CONTINUOUS
 62
     3
 10
-161.5
 20
2.5
 30
0.0
 40
0.2
 50
270.0
 51
0.0
  0
ARC
  5
85
  8
OUTLINE
  6
CONTINUOUS
 62
     3
 10
-161.5
 20
2.5
 30
0.0
 40
2.5
 50
270.0
 51
0.0
  0
LINE
  5
86
  8
OUTLINE
  6
CONTINUOUS
 62
     3
 10
-209.0
 20
0.0
 30
0.0
 11
-161.5
 21
0.0
 31
0.0
  0
LINE
  5
87
  8
OUTLINE
  6
CONTINUOUS
 62
     3
 10
-209.0
 20
2.3
 30
0.0
 11
-161.5
 21
2.3
 31
0.0
  0
LINE
  5
88
  8
OUTLINE
  6
CONTINUOUS
 62
     3
 10
-159.0
 20
1.6
 30
0.0
 11
-159.0
 21
2.5
 31
0.0
  0
POINT
  5
89
  8
DEFPOINTS
  6
CONTINUOUS
 62
     7
 10
-209.0
 20
0.0
 30
0.0
  0
LINE
  5
8A
  8
DETAIL
  6
CONTINUOUS
 62
     5
 10
-209.0
 20
0.0
 30
0.0
 11
-209.0
 21
2.3
 31
0.0
  0
POINT
  5
8B
  8
DEFPOINTS
  6
CONTINUOUS
 62
     7
 10
-209.0
 20
0.0
 30
0.0
  0
LINE
  5
8C
  8
NOTE
  6
CONTINUOUS
 62
     4
 10
-183.0
 20
-20.0
 30
0.0
 11
-183.0
 21
20.0
 31
0.0
  0
LINE
  5
8D
  8
DETAIL
  6
CONTINUOUS
 62
     5
 10
-199.0
 20
0.0
 30
0.0
 11
-199.0
 21
2.3
 31
0.0
  0
POINT
  5
8E
  8
DEFPOINTS
  6
CONTINUOUS
 62
     7
 10
-183.0
 20
0.0
 30
0.0
  0
LINE
  5
8F
  8
DETAIL
  6
CONTINUOUS
 62
     5
 10
-158.199298
 20
1.725062
 30
0.0
 11
-157.889755
 21
1.749929
 31
0.0
  0
LINE
  5
90
  8
DETAIL
  6
CONTINUOUS
 62
     5
 10
-157.889755
 20
1.749929
 30
0.0
 11
-157.2
 21
1.8
 31
0.0
  0
LINE
  5
91
  8
DETAIL
  6
CONTINUOUS
 62
     5
 10
-159.0
 20
1.6
 30
0.0
 11
-157.4
 21
1.6
 31
0.0
  0
LINE
  5
92
  8
DETAIL
  6
CONTINUOUS
 62
     5
 10
-157.4
 20
0.0
 30
0.0
 11
-157.4
 21
1.6
 31
0.0
  0
LINE
  5
93
  8
DETAIL
  6
CONTINUOUS
 62
     5
 10
-157.274938
 20
0.800702
 30
0.0
 11
-157.250071
 21
1.110245
 31
0.0
  0
LINE
  5
94
  8
DETAIL
  6
CONTINUOUS
 62
     5
 10
-157.250071
 20
1.110245
 30
0.0
 11
-157.2
 21
1.8
 31
0.0
  0
LINE
  5
95
  8
DETAIL
  6
CONTINUOUS
 62
     5
 10
-157.4
 20
1.6
 30
0.0
 11
-157.384745
 21
1.650051
 31
0.0
  0
LINE
  5
96
  8
DETAIL
  6
CONTINUOUS
 62
     5
 10
-157.384745
 20
1.650051
 30
0.0
 11
-157.341421
 21
1.7
 31
0.0
  0
LINE
  5
97
  8
DETAIL
  6
CONTINUOUS
 62
     5
 10
-157.341421
 20
1.7
 30
0.0
 11
-157.27661
 21
1.749949
 31
0.0
  0
LINE
  5
98
  8
DETAIL
  6
CONTINUOUS
 62
     5
 10
-157.27661
 20
1.749949
 30
0.0
 11
-157.2
 21
1.8
 31
0.0
  0
LINE
  5
99
  8
DETAIL
  6
CONTINUOUS
 62
     5
 10
-157.4
 20
0.0
 30
0.0
 11
-157.375044
 21
0.034465
 31
0.0
  0
LINE
  5
9A
  8
DETAIL
  6
CONTINUOUS
 62
     5
 10
-157.375044
 20
0.034465
 30
0.0
 11
-157.349929
 21
0.1374
 31
0.0
  0
LINE
  5
9B
  8
DETAIL
  6
CONTINUOUS
 62
     5
 10
-157.349929
 20
0.1374
 30
0.0
 11
-157.325062
 21
0.302868
 31
0.0
  0
LINE
  5
9C
  8
DETAIL
  6
CONTINUOUS
 62
     5
 10
-157.325062
 20
0.302868
 30
0.0
 11
-157.3
 21
0.527208
 31
0.0
  0
LINE
  5
9D
  8
DETAIL
  6
CONTINUOUS
 62
     5
 10
-157.3
 20
0.527208
 30
0.0
 11
-157.274938
 21
0.800702
 31
0.0
  0
LINE
  5
9E
  8
DETAIL
  6
CONTINUOUS
 62
     5
 10
-159.0
 20
1.6
 30
0.0
 11
-158.965535
 21
1.624956
 31
0.0
  0
LINE
  5
9F
  8
DETAIL
  6
CONTINUOUS
 62
     5
 10
-158.965535
 20
1.624956
 30
0.0
 11
-158.8626
 21
1.650071
 31
0.0
  0
LINE
  5
A0
  8
DETAIL
  6
CONTINUOUS
 62
     5
 10
-158.8626
 20
1.650071
 30
0.0
 11
-158.697132
 21
1.674938
 31
0.0
  0
LINE
  5
A1
  8
DETAIL
  6
CONTINUOUS
 62
     5
 10
-158.697132
 20
1.674938
 30
0.0
 11
-158.472792
 21
1.7
 31
0.0
  0
LINE
  5
A2
  8
DETAIL
  6
CONTINUOUS
 62
     5
 10
-158.472792
 20
1.7
 30
0.0
 11
-158.199298
 21
1.725062
 31
0.0
  0
LINE
  5
A3
  8
DETAIL
  6
CONTINUOUS
 62
     5
 10
-157.4
 20
1.6
 30
0.0
 11
-157.349949
 21
1.615255
 31
0.0
  0
LINE
  5
A4
  8
DETAIL
  6
CONTINUOUS
 62
     5
 10
-157.349949
 20
1.615255
 30
0.0
 11
-157.3
 21
1.658579
 31
0.0
  0
LINE
  5
A5
  8
DETAIL
  6
CONTINUOUS
 62
     5
 10
-157.3
 20
1.658579
 30
0.0
 11
-157.250051
 21
1.72339
 31
0.0
  0
LINE
  5
A6
  8
DETAIL
  6
CONTINUOUS
 62
     5
 10
-157.250051
 20
1.72339
 30
0.0
 11
-157.2
 21
1.8
 31
0.0
  0
ARC
  5
A7
  8
DETAIL
  6
CONTINUOUS
 62
     5
 10
-161.5
 20
2.5
 30
0.0
 40
0.2
 50
270.0
 51
0.0
  0
ARC
  5
A8
  8
DETAIL
  6
CONTINUOUS
 62
     5
 10
-161.5
 20
2.5
 30
0.0
 40
2.5
 50
270.0
 51
0.0
  0
LINE
  5
A9
  8
DETAIL
  6
CONTINUOUS
 62
     5
 10
-159.0
 20
25.0
 30
0.0
 11
-161.3
 21
25.0
 31
0.0
  0
LINE
  5
AA
  8
DETAIL
  6
CONTINUOUS
 62
     5
 10
-159.0
 20
15.0
 30
0.0
 11
-161.3
 21
15.0
 31
0.0
  0
CIRCLE
  5
AB
  8
FIX
  6
CONTINUOUS
 62
    11
 10
-183.0
 20
0.0
 30
0.0
 40
20.0
  0
LINE
  5
AC
  8
NOTE
  6
CONTINUOUS
 62
     4
 10
-163.0
 20
0.0
 30
0.0
 11
-203.0
 21
0.0
 31
0.0
  0
LINE
  5
AD
  8
DETAIL
  6
CONTINUOUS
 62
     5
 10
-209.0
 20
0.0
 30
0.0
 11
-161.5
 21
0.0
 31
0.0
  0
LINE
  5
AE
  8
DETAIL
  6
CONTINUOUS
 62
     5
 10
-209.0
 20
2.3
 30
0.0
 11
-161.5
 21
2.3
 31
0.0
  0
LINE
  5
AF
  8
OUTLINE
  6
CONTINUOUS
 62
     3
 10
207.0
 20
0.0
 30
0.0
 11
159.5
 21
0.0
 31
0.0
  0
LINE
  5
B0
  8
OUTLINE
  6
CONTINUOUS
 62
     3
 10
207.0
 20
2.3
 30
0.0
 11
159.5
 21
2.3
 31
0.0
  0
LINE
  5
B1
  8
OUTLINE
  6
CONTINUOUS
 62
     3
 10
207.0
 20
0.0
 30
0.0
 11
207.0
 21
2.3
 31
0.0
  0
LINE
  5
B2
  8
OUTLINE
  6
CONTINUOUS
 62
     3
 10
157.0
 20
1.6
 30
0.0
 11
155.4
 21
1.6
 31
0.0
  0
LINE
  5
B3
  8
OUTLINE
  6
CONTINUOUS
 62
     3
 10
155.4
 20
0.0
 30
0.0
 11
155.4
 21
1.6
 31
0.0
  0
ARC
  5
B4
  8
OUTLINE
  6
CONTINUOUS
 62
     3
 10
159.5
 20
2.5
 30
0.0
 40
0.2
 50
180.0
 51
270.0
  0
ARC
  5
B5
  8
OUTLINE
  6
CONTINUOUS
 62
     3
 10
159.5
 20
2.5
 30
0.0
 40
2.5
 50
180.0
 51
270.0
  0
LINE
  5
B6
  8
OUTLINE
  6
CONTINUOUS
 62
     3
 10
157.0
 20
1.6
 30
0.0
 11
157.0
 21
2.5
 31
0.0
  0
LINE
  5
B7
  8
DETAIL
  6
CONTINUOUS
 62
     5
 10
161.0
 20
0.0
 30
0.0
 11
161.0
 21
2.3
 31
0.0
  0
LINE
  5
B8
  8
DETAIL
  6
CONTINUOUS
 62
     5
 10
157.0
 20
1.6
 30
0.0
 11
155.4
 21
1.6
 31
0.0
  0
LINE
  5
B9
  8
DETAIL
  6
CONTINUOUS
 62
     5
 10
156.199298
 20
1.725062
 30
0.0
 11
155.889755
 21
1.749929
 31
0.0
  0
LINE
  5
BA
  8
DETAIL
  6
CONTINUOUS
 62
     5
 10
155.889755
 20
1.749929
 30
0.0
 11
155.2
 21
1.8
 31
0.0
  0
LINE
  5
BB
  8
DETAIL
  6
CONTINUOUS
 62
     5
 10
155.4
 20
1.6
 30
0.0
 11
155.349949
 21
1.615255
 31
0.0
  0
LINE
  5
BC
  8
DETAIL
  6
CONTINUOUS
 62
     5
 10
155.349949
 20
1.615255
 30
0.0
 11
155.3
 21
1.658579
 31
0.0
  0
LINE
  5
BD
  8
DETAIL
  6
CONTINUOUS
 62
     5
 10
155.3
 20
1.658579
 30
0.0
 11
155.250051
 21
1.72339
 31
0.0
  0
LINE
  5
BE
  8
DETAIL
  6
CONTINUOUS
 62
     5
 10
155.250051
 20
1.72339
 30
0.0
 11
155.2
 21
1.8
 31
0.0
  0
LINE
  5
BF
  8
DETAIL
  6
CONTINUOUS
 62
     5
 10
157.0
 20
1.6
 30
0.0
 11
156.965535
 21
1.624956
 31
0.0
  0
LINE
  5
C0
  8
DETAIL
  6
CONTINUOUS
 62
     5
 10
156.965535
 20
1.624956
 30
0.0
 11
156.8626
 21
1.650071
 31
0.0
  0
LINE
  5
C1
  8
DETAIL
  6
CONTINUOUS
 62
     5
 10
156.8626
 20
1.650071
 30
0.0
 11
156.697132
 21
1.674938
 31
0.0
  0
LINE
  5
C2
  8
DETAIL
  6
CONTINUOUS
 62
     5
 10
156.697132
 20
1.674938
 30
0.0
 11
156.472792
 21
1.7
 31
0.0
  0
LINE
  5
C3
  8
DETAIL
  6
CONTINUOUS
 62
     5
 10
156.472792
 20
1.7
 30
0.0
 11
156.199298
 21
1.725062
 31
0.0
  0
LINE
  5
C4
  8
DETAIL
  6
CONTINUOUS
 62
     5
 10
155.4
 20
0.0
 30
0.0
 11
155.375044
 21
0.034465
 31
0.0
  0
LINE
  5
C5
  8
DETAIL
  6
CONTINUOUS
 62
     5
 10
155.375044
 20
0.034465
 30
0.0
 11
155.349929
 21
0.1374
 31
0.0
  0
LINE
  5
C6
  8
DETAIL
  6
CONTINUOUS
 62
     5
 10
155.349929
 20
0.1374
 30
0.0
 11
155.325062
 21
0.302868
 31
0.0
  0
LINE
  5
C7
  8
DETAIL
  6
CONTINUOUS
 62
     5
 10
155.325062
 20
0.302868
 30
0.0
 11
155.3
 21
0.527208
 31
0.0
  0
LINE
  5
C8
  8
DETAIL
  6
CONTINUOUS
 62
     5
 10
155.3
 20
0.527208
 30
0.0
 11
155.274938
 21
0.800702
 31
0.0
  0
LINE
  5
C9
  8
DETAIL
  6
CONTINUOUS
 62
     5
 10
155.4
 20
1.6
 30
0.0
 11
155.384745
 21
1.650051
 31
0.0
  0
LINE
  5
CA
  8
DETAIL
  6
CONTINUOUS
 62
     5
 10
155.384745
 20
1.650051
 30
0.0
 11
155.341421
 21
1.7
 31
0.0
  0
LINE
  5
CB
  8
DETAIL
  6
CONTINUOUS
 62
     5
 10
155.341421
 20
1.7
 30
0.0
 11
155.27661
 21
1.749949
 31
0.0
  0
LINE
  5
CC
  8
DETAIL
  6
CONTINUOUS
 62
     5
 10
155.27661
 20
1.749949
 30
0.0
 11
155.2
 21
1.8
 31
0.0
  0
LINE
  5
CD
  8
DETAIL
  6
CONTINUOUS
 62
     5
 10
155.274938
 20
0.800702
 30
0.0
 11
155.250071
 21
1.110245
 31
0.0
  0
LINE
  5
CE
  8
DETAIL
  6
CONTINUOUS
 62
     5
 10
155.250071
 20
1.110245
 30
0.0
 11
155.2
 21
1.8
 31
0.0
  0
LINE
  5
CF
  8
DETAIL
  6
CONTINUOUS
 62
     5
 10
155.4
 20
0.0
 30
0.0
 11
155.4
 21
1.6
 31
0.0
  0
ARC
  5
D0
  8
DETAIL
  6
CONTINUOUS
 62
     5
 10
159.5
 20
2.5
 30
0.0
 40
0.2
 50
180.0
 51
270.0
  0
ARC
  5
D1
  8
DETAIL
  6
CONTINUOUS
 62
     5
 10
159.5
 20
2.5
 30
0.0
 40
2.5
 50
180.0
 51
270.0
  0
LINE
  5
D2
  8
DETAIL
  6
CONTINUOUS
 62
     5
 10
157.0
 20
25.0
 30
0.0
 11
159.3
 21
25.0
 31
0.0
  0
LINE
  5
D3
  8
DETAIL
  6
CONTINUOUS
 62
     5
 10
157.0
 20
15.0
 30
0.0
 11
159.3
 21
15.0
 31
0.0
  0
LINE
  5
D4
  8
NOTE
  6
CONTINUOUS
 62
     4
 10
207.0
 20
0.0
 30
0.0
 11
167.0
 21
0.0
 31
0.0
  0
CIRCLE
  5
D5
  8
FIX
  6
CONTINUOUS
 62
    11
 10
187.0
 20
0.0
 30
0.0
 40
20.0
  0
LINE
  5
D6
  8
DETAIL
  6
CONTINUOUS
 62
     5
 10
207.0
 20
0.0
 30
0.0
 11
207.0
 21
2.3
 31
0.0
  0
POINT
  5
D7
  8
DEFPOINTS
  6
CONTINUOUS
 62
     7
 10
207.0
 20
0.0
 30
0.0
  0
LINE
  5
D8
  8
NOTE
  6
CONTINUOUS
 62
     4
 10
187.0
 20
-20.0
 30
0.0
 11
187.0
 21
20.0
 31
0.0
  0
LINE
  5
D9
  8
NOTE
  6
CONTINUOUS
 62
     4
 10
187.0
 20
0.0
 30
0.0
 11
188.38746
 21
-5.42314
 31
0.0
  0
LINE
  5
DA
  8
NOTE
  6
CONTINUOUS
 62
     4
 10
187.0
 20
0.0
 30
0.0
 11
192.508122
 21
-2.239204
 31
0.0
  0
LINE
  5
DB
  8
DETAIL
  6
CONTINUOUS
 62
     5
 10
197.0
 20
0.0
 30
0.0
 11
197.0
 21
2.3
 31
0.0
  0
POINT
  5
DC
  8
DEFPOINTS
  6
CONTINUOUS
 62
     7
 10
187.0
 20
0.0
 30
0.0
  0
LINE
  5
DD
  8
DETAIL
  6
CONTINUOUS
 62
     5
 10
207.0
 20
0.0
 30
0.0
 11
159.5
 21
0.0
 31
0.0
  0
LINE
  5
DE
  8
DETAIL
  6
CONTINUOUS
 62
     5
 10
207.0
 20
2.3
 30
0.0
 11
159.5
 21
2.3
 31
0.0
  0
TEXT
  5
DF
  8
NOTE
  6
CONTINUOUS
 62
     4
 10
391.279603
 20
-179.15928
 30
0.0
 40
64.0
  1
AH 2X2-15X22 長穴
 50
0.000003
 41
0.82672
  7
STANDARD1
  0
LINE
  5
E0
  8
NOTE
  6
CONTINUOUS
 62
     4
 10
1161.297509
 20
-200.495814
 30
0.0
 11
340.647247
 21
-200.495814
 31
0.0
  0
CIRCLE
  5
E1
  8
SIZE
  6
CONTINUOUS
 62
    30
 10
416.89049
 20
0.0
 30
0.0
 40
5.0
  0
LINE
  5
E2
  8
SIZE
  6
CONTINUOUS
 62
    30
 10
416.89049
 20
5.0
 30
0.0
 11
416.89049
 21
10.0
 31
0.0
  0
CIRCLE
  5
E3
  8
SIZE
  6
CONTINUOUS
 62
    30
 10
585.772705
 20
0.0
 30
0.0
 40
5.0
  0
LINE
  5
E4
  8
SIZE
  6
CONTINUOUS
 62
    30
 10
585.772705
 20
5.0
 30
0.0
 11
585.772705
 21
10.0
 31
0.0
  0
TEXT
  5
E5
  8
SIZE
  6
CONTINUOUS
 62
    30
 10
-111.557143
 20
1828.810771
 30
0.0
 40
64.0
  1
495
 41
0.9
 72
     1
 11
-37.5
 21
1828.810771
 31
0.0
  0
LINE
  5
E6
  8
SIZE
  6
CONTINUOUS
 62
    30
 10
230.0
 20
1375.0
 30
0.0
 11
615.772705
 21
1375.0
 31
0.0
  0
LINE
  5
E7
  8
SIZE
  6
CONTINUOUS
 62
    30
 10
159.0
 20
1320.0
 30
0.0
 11
446.89049
 21
1320.0
 31
0.0
  0
LINE
  5
E8
  8
SIZE
  6
CONTINUOUS
 62
    30
 10
159.0
 20
1260.0
 30
0.0
 11
446.89049
 21
1260.0
 31
0.0
  0
LINE
  5
E9
  8
SIZE
  6
CONTINUOUS
 62
    30
 10
159.0
 20
1260.0
 30
0.0
 11
446.89049
 21
1260.0
 31
0.0
  0
LINE
  5
EA
  8
NOTE
  6
CONTINUOUS
 62
     4
 10
301.718332
 20
1604.734717
 30
0.0
 11
119.0
 21
1320.0
 31
0.0
  0
LINE
  5
EB
  8
NOTE
  6
CONTINUOUS
 62
     4
 10
280.258751
 20
1511.293695
 30
0.0
 11
119.0
 21
1260.0
 31
0.0
  0
LINE
  5
EC
  8
OUTLINE
  6
CONTINUOUS
 62
     3
 10
-285.0
 20
780.310325
 30
0.0
 11
-285.0
 21
1311.089675
 31
0.0
  0
LINE
  5
ED
  8
OUTLINE
  6
CONTINUOUS
 62
     3
 10
210.0
 20
1375.0
 30
0.0
 11
210.0
 21
150.0
 31
0.0
  0
LINE
  5
EE
  8
DETAIL
  6
CONTINUOUS
 62
     5
 10
-285.0
 20
780.310325
 30
0.0
 11
-285.0
 21
1311.089675
 31
0.0
  0
LINE
  5
EF
  8
DETAIL
  6
CONTINUOUS
 62
     5
 10
-210.0
 20
1375.0
 30
0.0
 11
-210.0
 21
150.0
 31
0.0
  0
LINE
  5
F0
  8
DETAIL
  6
CONTINUOUS
 62
     5
 10
210.0
 20
1375.0
 30
0.0
 11
210.0
 21
150.0
 31
0.0
  0
LINE
  5
F1
  8
NOTE
  6
CONTINUOUS
 62
     4
 10
-135.0
 20
328.0
 30
0.0
 11
-293.079215
 21
490.609845
 31
0.0
  0
LINE
  5
F2
  8
NOTE
  6
CONTINUOUS
 62
     4
 10
-60.0
 20
343.0
 30
0.0
 11
-304.019807
 21
594.013537
 31
0.0
  0
ARC
  5
F3
  8
OUTLINE
  6
CONTINUOUS
 62
     3
 10
-204.546544
 20
504.695339
 30
0.0
 40
228.969614
 50
91.364764
 51
109.336833
  0
ARC
  5
F4
  8
OUTLINE
  6
CONTINUOUS
 62
     3
 10
-204.546544
 20
989.104661
 30
0.0
 40
228.969614
 50
250.663167
 51
268.635236
  0
ARC
  5
F5
  8
OUTLINE
  6
CONTINUOUS
 62
     3
 10
-204.546544
 20
391.504661
 30
0.0
 40
228.969614
 50
250.663167
 51
268.635236
  0
ARC
  5
F6
  8
DETAIL
  6
CONTINUOUS
 62
     5
 10
-204.546544
 20
504.695339
 30
0.0
 40
228.969614
 50
91.364764
 51
109.336833
  0
LINE
  5
F7
  8
DETAIL
  6
CONTINUOUS
 62
     5
 10
-275.0
 20
688.1
 30
0.0
 11
-210.0
 21
688.1
 31
0.0
  0
LINE
  5
F8
  8
DETAIL
  6
CONTINUOUS
 62
     5
 10
-275.0
 20
668.1
 30
0.0
 11
-210.0
 21
668.1
 31
0.0
  0
ARC
  5
F9
  8
DETAIL
  6
CONTINUOUS
 62
     5
 10
-204.546544
 20
391.504661
 30
0.0
 40
228.969614
 50
250.663167
 51
268.635236
  0
LINE
  5
FA
  8
DETAIL
  6
CONTINUOUS
 62
     5
 10
-275.0
 20
228.1
 30
0.0
 11
-210.0
 21
228.1
 31
0.0
  0
LINE
  5
FB
  8
DETAIL
  6
CONTINUOUS
 62
     5
 10
-275.0
 20
208.1
 30
0.0
 11
-210.0
 21
208.1
 31
0.0
  0
ARC
  5
FC
  8
DETAIL
  6
CONTINUOUS
 62
     5
 10
-204.546544
 20
989.104661
 30
0.0
 40
228.969614
 50
250.663167
 51
268.635236
  0
LINE
  5
FD
  8
DETAIL
  6
CONTINUOUS
 62
     5
 10
-275.0
 20
825.7
 30
0.0
 11
-210.0
 21
825.7
 31
0.0
  0
LINE
  5
FE
  8
DETAIL
  6
CONTINUOUS
 62
     5
 10
-275.0
 20
805.7
 30
0.0
 11
-210.0
 21
805.7
 31
0.0
  0
LINE
  5
FF
  8
SIZE
  6
CONTINUOUS
 62
    30
 10
-65.5
 20
343.0
 30
0.0
 11
-449.330164
 21
343.0
 31
0.0
  0
LINE
  5
100
  8
SIZE
  6
CONTINUOUS
 62
    30
 10
-140.5
 20
328.0
 30
0.0
 11
-357.631456
 21
328.0
 31
0.0
  0
LINE
  5
101
  8
OUTLINE
  6
CONTINUOUS
 62
     3
 10
-285.0
 20
182.710325
 30
0.0
 11
-285.0
 21
713.489675
 31
0.0
  0
LINE
  5
102
  8
DETAIL
  6
CONTINUOUS
 62
     5
 10
-285.0
 20
182.710325
 30
0.0
 11
-285.0
 21
713.489675
 31
0.0
  0
TEXT
  5
103
  8
NOTE
  6
CONTINUOUS
 62
     4
 10
-569.478797
 20
502.512406
 30
0.0
 40
44.0
  1
RL %%C12.7
 41
0.9
  0
LINE
  5
104
  8
NOTE
  6
CONTINUOUS
 62
     4
 10
-293.079215
 20
490.609845
 30
0.0
 11
-577.820733
 21
490.609845
 31
0.0
  0
TEXT
  5
105
  8
SIZE
  6
CONTINUOUS
 62
    30
 10
-465.255278
 20
88.662852
 30
0.0
 40
64.0
  1
343
 50
90.0
 41
0.9
 72
     1
 11
-465.255278
 21
162.719994
 31
0.0
  0
ARC
  5
106
  8
OUTLINE
  6
CONTINUOUS
 62
     3
 10
-277.0
 20
182.710325
 30
0.0
 40
8.0
 50
180.0
 51
245.140122
  0
ARC
  5
107
  8
DETAIL
  6
CONTINUOUS
 62
     5
 10
-277.0
 20
182.710325
 30
0.0
 40
8.0
 50
180.0
 51
245.140122
  0
ARC
  5
108
  8
DETAIL
  6
CONTINUOUS
 62
     5
 10
-275.0
 20
218.1
 30
0.0
 40
10.0
 50
90.0
 51
270.0
  0
LINE
  5
109
  8
SIZE
  6
CONTINUOUS
 62
    30
 10
-448.430164
 20
337.0
 30
0.0
 11
-448.430164
 21
331.0
 31
0.0
  0
CIRCLE
  5
10A
  8
SIZE
  6
CONTINUOUS
 62
    30
 10
-448.430164
 20
343.0
 30
0.0
 40
6.0
  0
POINT
  5
10B
  8
DEFPOINTS
  6
CONTINUOUS
 62
     7
 10
-356.731456
 20
328.0
 30
0.0
  0
LINE
  5
10C
  8
SIZE
  6
CONTINUOUS
 62
    30
 10
-356.731456
 20
322.0
 30
0.0
 11
-356.731456
 21
316.0
 31
0.0
  0
CIRCLE
  5
10D
  8
SIZE
  6
CONTINUOUS
 62
    30
 10
-356.731456
 20
328.0
 30
0.0
 40
6.0
  0
LINE
  5
10E
  8
NOTE
  6
CONTINUOUS
 62
     4
 10
-304.019807
 20
594.013537
 30
0.0
 11
-576.081465
 21
594.013537
 31
0.0
  0
TEXT
  5
10F
  8
NOTE
  6
CONTINUOUS
 62
     4
 10
-575.296408
 20
605.338114
 30
0.0
 40
44.0
  1
RG %%C25.4
 41
0.9
  0
ARC
  5
110
  8
OUTLINE
  6
CONTINUOUS
 62
     3
 10
-277.0
 20
713.489675
 30
0.0
 40
8.0
 50
114.859878
 51
180.0
  0
ARC
  5
111
  8
DETAIL
  6
CONTINUOUS
 62
     5
 10
-275.0
 20
678.1
 30
0.0
 40
10.0
 50
90.0
 51
270.0
  0
ARC
  5
112
  8
DETAIL
  6
CONTINUOUS
 62
     5
 10
-277.0
 20
713.489675
 30
0.0
 40
8.0
 50
114.859878
 51
180.0
  0
ARC
  5
113
  8
OUTLINE
  6
CONTINUOUS
 62
     3
 10
-277.0
 20
780.310325
 30
0.0
 40
8.0
 50
180.0
 51
245.140122
  0
ARC
  5
114
  8
DETAIL
  6
CONTINUOUS
 62
     5
 10
-277.0
 20
780.310325
 30
0.0
 40
8.0
 50
180.0
 51
245.140122
  0
ARC
  5
115
  8
DETAIL
  6
CONTINUOUS
 62
     5
 10
-275.0
 20
815.7
 30
0.0
 40
10.0
 50
90.0
 51
270.0
  0
LINE
  5
116
  8
DETAIL
  6
CONTINUOUS
 62
     5
 10
-60.0
 20
175.0
 30
0.0
 11
20.0
 21
175.0
 31
0.0
  0
LINE
  5
117
  8
DETAIL
  6
CONTINUOUS
 62
     5
 10
-60.0
 20
255.0
 30
0.0
 11
20.0
 21
255.0
 31
0.0
  0
LINE
  5
118
  8
DETAIL
  6
CONTINUOUS
 62
     5
 10
-60.0
 20
265.0
 30
0.0
 11
20.0
 21
265.0
 31
0.0
  0
LINE
  5
119
  8
DETAIL
  6
CONTINUOUS
 62
     5
 10
-60.0
 20
345.0
 30
0.0
 11
20.0
 21
345.0
 31
0.0
  0
LINE
  5
11A
  8
DETAIL
  6
CONTINUOUS
 62
     5
 10
-60.0
 20
435.0
 30
0.0
 11
20.0
 21
435.0
 31
0.0
  0
LINE
  5
11B
  8
DETAIL
  6
CONTINUOUS
 62
     5
 10
-60.0
 20
355.0
 30
0.0
 11
20.0
 21
355.0
 31
0.0
  0
LINE
  5
11C
  8
DETAIL
  6
CONTINUOUS
 62
     5
 10
-60.0
 20
445.0
 30
0.0
 11
20.0
 21
445.0
 31
0.0
  0
LINE
  5
11D
  8
DETAIL
  6
CONTINUOUS
 62
     5
 10
-60.0
 20
525.0
 30
0.0
 11
20.0
 21
525.0
 31
0.0
  0
LINE
  5
11E
  8
DETAIL
  6
CONTINUOUS
 62
     5
 10
-210.0
 20
150.0
 30
0.0
 11
208.5
 21
150.0
 31
0.0
  0
LINE
  5
11F
  8
DETAIL
  6
CONTINUOUS
 62
     5
 10
-60.0
 20
345.0
 30
0.0
 11
-60.0
 21
265.0
 31
0.0
  0
LINE
  5
120
  8
NOTE
  6
CONTINUOUS
 62
     4
 10
-135.0
 20
308.0
 30
0.0
 11
-135.0
 21
348.0
 31
0.0
  0
LINE
  5
121
  8
OUTLINE
  6
CONTINUOUS
 62
     3
 10
-185.598211
 20
142.5
 30
0.0
 11
-173.598211
 21
142.5
 31
0.0
  0
ARC
  5
122
  8
OUTLINE
  6
CONTINUOUS
 62
     3
 10
-208.8
 20
147.0
 30
0.0
 40
1.0
 50
180.0
 51
270.0
  0
LINE
  5
123
  8
OUTLINE
  6
CONTINUOUS
 62
     3
 10
-209.8
 20
147.0
 30
0.0
 11
-209.8
 21
150.0
 31
0.0
  0
LINE
  5
124
  8
OUTLINE
  6
CONTINUOUS
 62
     3
 10
-209.8
 20
150.0
 30
0.0
 11
-210.0
 21
150.0
 31
0.0
  0
LINE
  5
125
  8
OUTLINE
  6
CONTINUOUS
 62
     3
 10
-185.598211
 20
146.0
 30
0.0
 11
-185.598211
 21
142.5
 31
0.0
  0
LINE
  5
126
  8
OUTLINE
  6
CONTINUOUS
 62
     3
 10
-208.8
 20
146.0
 30
0.0
 11
-185.598211
 21
146.0
 31
0.0
  0
LINE
  5
127
  8
OUTLINE
  6
CONTINUOUS
 62
     3
 10
-173.598211
 20
146.0
 30
0.0
 11
-173.598211
 21
142.5
 31
0.0
  0
LINE
  5
128
  8
OUTLINE
  6
CONTINUOUS
 62
     3
 10
-173.598211
 20
146.0
 30
0.0
 11
-161.3
 21
146.0
 31
0.0
  0
LINE
  5
129
  8
OUTLINE
  6
CONTINUOUS
 62
     3
 10
-210.0
 20
162.6
 30
0.0
 11
-210.0
 21
150.0
 31
0.0
  0
LINE
  5
12A
  8
DETAIL
  6
CONTINUOUS
 62
     5
 10
-208.8
 20
147.0
 30
0.0
 11
-209.0
 21
147.0
 31
0.0
  0
LINE
  5
12B
  8
DETAIL
  6
CONTINUOUS
 62
     5
 10
-208.8
 20
146.8
 30
0.0
 11
-208.8
 21
147.0
 31
0.0
  0
LINE
  5
12C
  8
DETAIL
  6
CONTINUOUS
 62
     5
 10
-206.8
 20
146.0
 30
0.0
 11
-206.8
 21
146.8
 31
0.0
  0
ARC
  5
12D
  8
DETAIL
  6
CONTINUOUS
 62
     5
 10
-208.8
 20
147.0
 30
0.0
 40
0.2
 50
180.0
 51
270.0
  0
ARC
  5
12E
  8
DETAIL
  6
CONTINUOUS
 62
     5
 10
-208.8
 20
147.0
 30
0.0
 40
1.0
 50
180.0
 51
270.0
  0
LINE
  5
12F
  8
DETAIL
  6
CONTINUOUS
 62
     5
 10
-209.8
 20
147.0
 30
0.0
 11
-209.8
 21
150.0
 31
0.0
  0
LINE
  5
130
  8
DETAIL
  6
CONTINUOUS
 62
     5
 10
-209.0
 20
147.0
 30
0.0
 11
-209.0
 21
150.0
 31
0.0
  0
LINE
  5
131
  8
DETAIL
  6
CONTINUOUS
 62
     5
 10
-185.598211
 20
142.5
 30
0.0
 11
-173.598211
 21
142.5
 31
0.0
  0
LINE
  5
132
  8
DETAIL
  6
CONTINUOUS
 62
     5
 10
-185.598211
 20
147.7
 30
0.0
 11
-185.598211
 21
142.5
 31
0.0
  0
LINE
  5
133
  8
DETAIL
  6
CONTINUOUS
 62
     5
 10
-173.598211
 20
147.7
 30
0.0
 11
-173.598211
 21
142.5
 31
0.0
  0
LINE
  5
134
  8
DETAIL
  6
CONTINUOUS
 62
     5
 10
-201.8
 20
146.0
 30
0.0
 11
-201.8
 21
146.8
 31
0.0
  0
LINE
  5
135
  8
DETAIL
  6
CONTINUOUS
 62
     5
 10
-157.325062
 20
149.697132
 30
0.0
 11
-157.349929
 21
149.8626
 31
0.0
  0
LINE
  5
136
  8
DETAIL
  6
CONTINUOUS
 62
     5
 10
-157.250071
 20
148.889755
 30
0.0
 11
-157.274938
 21
149.199298
 31
0.0
  0
LINE
  5
137
  8
DETAIL
  6
CONTINUOUS
 62
     5
 10
-157.274938
 20
149.199298
 30
0.0
 11
-157.3
 21
149.472792
 31
0.0
  0
LINE
  5
138
  8
DETAIL
  6
CONTINUOUS
 62
     5
 10
-157.3
 20
149.472792
 30
0.0
 11
-157.325062
 21
149.697132
 31
0.0
  0
LINE
  5
139
  8
DETAIL
  6
CONTINUOUS
 62
     5
 10
-157.349929
 20
149.8626
 30
0.0
 11
-157.375044
 21
149.965535
 31
0.0
  0
LINE
  5
13A
  8
DETAIL
  6
CONTINUOUS
 62
     5
 10
-157.375044
 20
149.965535
 30
0.0
 11
-157.4
 21
150.0
 31
0.0
  0
LINE
  5
13B
  8
DETAIL
  6
CONTINUOUS
 62
     5
 10
-159.0
 20
148.4
 30
0.0
 11
-157.4
 21
148.4
 31
0.0
  0
LINE
  5
13C
  8
DETAIL
  6
CONTINUOUS
 62
     5
 10
-157.2
 20
148.2
 30
0.0
 11
-157.889755
 21
148.250071
 31
0.0
  0
LINE
  5
13D
  8
DETAIL
  6
CONTINUOUS
 62
     5
 10
-157.889755
 20
148.250071
 30
0.0
 11
-158.199298
 21
148.274938
 31
0.0
  0
LINE
  5
13E
  8
DETAIL
  6
CONTINUOUS
 62
     5
 10
-158.199298
 20
148.274938
 30
0.0
 11
-158.472792
 21
148.3
 31
0.0
  0
LINE
  5
13F
  8
DETAIL
  6
CONTINUOUS
 62
     5
 10
-158.472792
 20
148.3
 30
0.0
 11
-158.697132
 21
148.325062
 31
0.0
  0
LINE
  5
140
  8
DETAIL
  6
CONTINUOUS
 62
     5
 10
-158.697132
 20
148.325062
 30
0.0
 11
-158.8626
 21
148.349929
 31
0.0
  0
LINE
  5
141
  8
DETAIL
  6
CONTINUOUS
 62
     5
 10
-158.8626
 20
148.349929
 30
0.0
 11
-158.965535
 21
148.375044
 31
0.0
  0
LINE
  5
142
  8
DETAIL
  6
CONTINUOUS
 62
     5
 10
-158.965535
 20
148.375044
 30
0.0
 11
-159.0
 21
148.4
 31
0.0
  0
LINE
  5
143
  8
DETAIL
  6
CONTINUOUS
 62
     5
 10
-157.2
 20
148.2
 30
0.0
 11
-157.27661
 21
148.250051
 31
0.0
  0
LINE
  5
144
  8
DETAIL
  6
CONTINUOUS
 62
     5
 10
-157.27661
 20
148.250051
 30
0.0
 11
-157.341421
 21
148.3
 31
0.0
  0
LINE
  5
145
  8
DETAIL
  6
CONTINUOUS
 62
     5
 10
-157.341421
 20
148.3
 30
0.0
 11
-157.384745
 21
148.349949
 31
0.0
  0
LINE
  5
146
  8
DETAIL
  6
CONTINUOUS
 62
     5
 10
-157.384745
 20
148.349949
 30
0.0
 11
-157.4
 21
148.4
 31
0.0
  0
LINE
  5
147
  8
DETAIL
  6
CONTINUOUS
 62
     5
 10
-157.2
 20
148.2
 30
0.0
 11
-157.250051
 21
148.27661
 31
0.0
  0
LINE
  5
148
  8
DETAIL
  6
CONTINUOUS
 62
     5
 10
-157.250051
 20
148.27661
 30
0.0
 11
-157.3
 21
148.341421
 31
0.0
  0
LINE
  5
149
  8
DETAIL
  6
CONTINUOUS
 62
     5
 10
-157.3
 20
148.341421
 30
0.0
 11
-157.349949
 21
148.384745
 31
0.0
  0
LINE
  5
14A
  8
DETAIL
  6
CONTINUOUS
 62
     5
 10
-157.349949
 20
148.384745
 30
0.0
 11
-157.4
 21
148.4
 31
0.0
  0
ARC
  5
14B
  8
DETAIL
  6
CONTINUOUS
 62
     5
 10
-161.5
 20
147.5
 30
0.0
 40
0.2
 50
0.0
 51
90.0
  0
LINE
  5
14C
  8
DETAIL
  6
CONTINUOUS
 62
     5
 10
-159.0
 20
130.0
 30
0.0
 11
-161.3
 21
130.0
 31
0.0
  0
LINE
  5
14D
  8
DETAIL
  6
CONTINUOUS
 62
     5
 10
-159.0
 20
140.0
 30
0.0
 11
-161.3
 21
140.0
 31
0.0
  0
LINE
  5
14E
  8
DETAIL
  6
CONTINUOUS
 62
     5
 10
-157.4
 20
150.0
 30
0.0
 11
-157.4
 21
148.4
 31
0.0
  0
ARC
  5
14F
  8
DETAIL
  6
CONTINUOUS
 62
     5
 10
-161.5
 20
147.5
 30
0.0
 40
2.5
 50
0.0
 51
90.0
  0
LINE
  5
150
  8
DETAIL
  6
CONTINUOUS
 62
     5
 10
-157.2
 20
148.2
 30
0.0
 11
-157.250071
 21
148.889755
 31
0.0
  0
LINE
  5
151
  8
DETAIL
  6
CONTINUOUS
 62
     5
 10
-173.598211
 20
146.0
 30
0.0
 11
-161.3
 21
146.0
 31
0.0
  0
LINE
  5
152
  8
DETAIL
  6
CONTINUOUS
 62
     5
 10
-173.598211
 20
146.8
 30
0.0
 11
-161.3
 21
146.8
 31
0.0
  0
LINE
  5
153
  8
DETAIL
  6
CONTINUOUS
 62
     5
 10
-208.8
 20
146.0
 30
0.0
 11
-185.598211
 21
146.0
 31
0.0
  0
LINE
  5
154
  8
DETAIL
  6
CONTINUOUS
 62
     5
 10
-208.8
 20
146.8
 30
0.0
 11
-185.598211
 21
146.8
 31
0.0
  0
LINE
  5
155
  8
DETAIL
  6
CONTINUOUS
 62
     5
 10
-161.5
 20
147.7
 30
0.0
 11
-209.0
 21
147.7
 31
0.0
  0
LINE
  5
156
  8
DETAIL
  6
CONTINUOUS
 62
     5
 10
-60.0
 20
255.0
 30
0.0
 11
-60.0
 21
175.0
 31
0.0
  0
LINE
  5
157
  8
NOTE
  6
CONTINUOUS
 62
     4
 10
-135.0
 20
328.0
 30
0.0
 11
-152.13314
 21
358.66797
 31
0.0
  0
LINE
  5
158
  8
NOTE
  6
CONTINUOUS
 62
     4
 10
-135.0
 20
328.0
 30
0.0
 11
-164.967682
 21
345.870995
 31
0.0
  0
POINT
  5
159
  8
DEFPOINTS
  6
CONTINUOUS
 62
     7
 10
-135.0
 20
328.0
 30
0.0
  0
POINT
  5
15A
  8
DEFPOINTS
  6
CONTINUOUS
 62
     7
 10
-135.0
 20
328.0
 30
0.0
  0
LINE
  5
15B
  8
NOTE
  6
CONTINUOUS
 62
     4
 10
-155.0
 20
328.0
 30
0.0
 11
-115.0
 21
328.0
 31
0.0
  0
LINE
  5
15C
  8
NOTE
  6
CONTINUOUS
 62
     4
 10
-60.0
 20
343.0
 30
0.0
 11
-77.13314
 21
373.66797
 31
0.0
  0
LINE
  5
15D
  8
NOTE
  6
CONTINUOUS
 62
     4
 10
-60.0
 20
343.0
 30
0.0
 11
-89.967682
 21
360.870995
 31
0.0
  0
LINE
  5
15E
  8
DETAIL
  6
CONTINUOUS
 62
     5
 10
-60.0
 20
525.0
 30
0.0
 11
-60.0
 21
445.0
 31
0.0
  0
LINE
  5
15F
  8
DETAIL
  6
CONTINUOUS
 62
     5
 10
-60.0
 20
435.0
 30
0.0
 11
-60.0
 21
355.0
 31
0.0
  0
POINT
  5
160
  8
DEFPOINTS
  6
CONTINUOUS
 62
     7
 10
-60.5
 20
343.0
 30
0.0
  0
POINT
  5
161
  8
DEFPOINTS
  6
CONTINUOUS
 62
     7
 10
-60.5
 20
343.0
 30
0.0
  0
LINE
  5
162
  8
NOTE
  6
CONTINUOUS
 62
     4
 10
-80.0
 20
343.0
 30
0.0
 11
-40.0
 21
343.0
 31
0.0
  0
LINE
  5
163
  8
NOTE
  6
CONTINUOUS
 62
     4
 10
-60.0
 20
323.0
 30
0.0
 11
-60.0
 21
363.0
 31
0.0
  0
LINE
  5
164
  8
DETAIL
  6
CONTINUOUS
 62
     5
 10
200.0
 20
345.0
 30
0.0
 11
200.0
 21
265.0
 31
0.0
  0
LINE
  5
165
  8
DETAIL
  6
CONTINUOUS
 62
     5
 10
110.0
 20
345.0
 30
0.0
 11
110.0
 21
265.0
 31
0.0
  0
LINE
  5
166
  8
DETAIL
  6
CONTINUOUS
 62
     5
 10
120.0
 20
345.0
 30
0.0
 11
120.0
 21
265.0
 31
0.0
  0
LINE
  5
167
  8
DETAIL
  6
CONTINUOUS
 62
     5
 10
30.0
 20
345.0
 30
0.0
 11
30.0
 21
265.0
 31
0.0
  0
LINE
  5
168
  8
DETAIL
  6
CONTINUOUS
 62
     5
 10
20.0
 20
345.0
 30
0.0
 11
20.0
 21
265.0
 31
0.0
  0
LINE
  5
169
  8
DETAIL
  6
CONTINUOUS
 62
     5
 10
120.0
 20
265.0
 30
0.0
 11
200.0
 21
265.0
 31
0.0
  0
LINE
  5
16A
  8
DETAIL
  6
CONTINUOUS
 62
     5
 10
120.0
 20
255.0
 30
0.0
 11
200.0
 21
255.0
 31
0.0
  0
LINE
  5
16B
  8
DETAIL
  6
CONTINUOUS
 62
     5
 10
120.0
 20
175.0
 30
0.0
 11
200.0
 21
175.0
 31
0.0
  0
LINE
  5
16C
  8
DETAIL
  6
CONTINUOUS
 62
     5
 10
20.0
 20
255.0
 30
0.0
 11
20.0
 21
175.0
 31
0.0
  0
LINE
  5
16D
  8
DETAIL
  6
CONTINUOUS
 62
     5
 10
30.0
 20
255.0
 30
0.0
 11
30.0
 21
175.0
 31
0.0
  0
LINE
  5
16E
  8
DETAIL
  6
CONTINUOUS
 62
     5
 10
110.0
 20
255.0
 30
0.0
 11
110.0
 21
175.0
 31
0.0
  0
LINE
  5
16F
  8
DETAIL
  6
CONTINUOUS
 62
     5
 10
120.0
 20
255.0
 30
0.0
 11
120.0
 21
175.0
 31
0.0
  0
LINE
  5
170
  8
DETAIL
  6
CONTINUOUS
 62
     5
 10
30.0
 20
255.0
 30
0.0
 11
110.0
 21
255.0
 31
0.0
  0
LINE
  5
171
  8
DETAIL
  6
CONTINUOUS
 62
     5
 10
30.0
 20
265.0
 30
0.0
 11
110.0
 21
265.0
 31
0.0
  0
LINE
  5
172
  8
DETAIL
  6
CONTINUOUS
 62
     5
 10
30.0
 20
175.0
 30
0.0
 11
110.0
 21
175.0
 31
0.0
  0
LINE
  5
173
  8
DETAIL
  6
CONTINUOUS
 62
     5
 10
200.0
 20
255.0
 30
0.0
 11
200.0
 21
175.0
 31
0.0
  0
LINE
  5
174
  8
OUTLINE
  6
CONTINUOUS
 62
     3
 10
207.0
 20
150.0
 30
0.0
 11
210.0
 21
150.0
 31
0.0
  0
LINE
  5
175
  8
OUTLINE
  6
CONTINUOUS
 62
     3
 10
207.0
 20
150.0
 30
0.0
 11
207.0
 21
147.7
 31
0.0
  0
LINE
  5
176
  8
OUTLINE
  6
CONTINUOUS
 62
     3
 10
159.3
 20
147.7
 30
0.0
 11
207.0
 21
147.7
 31
0.0
  0
LINE
  5
177
  8
DETAIL
  6
CONTINUOUS
 62
     5
 10
155.325062
 20
149.697132
 30
0.0
 11
155.349929
 21
149.8626
 31
0.0
  0
LINE
  5
178
  8
DETAIL
  6
CONTINUOUS
 62
     5
 10
155.250071
 20
148.889755
 30
0.0
 11
155.274938
 21
149.199298
 31
0.0
  0
LINE
  5
179
  8
DETAIL
  6
CONTINUOUS
 62
     5
 10
155.274938
 20
149.199298
 30
0.0
 11
155.3
 21
149.472792
 31
0.0
  0
LINE
  5
17A
  8
DETAIL
  6
CONTINUOUS
 62
     5
 10
155.3
 20
149.472792
 30
0.0
 11
155.325062
 21
149.697132
 31
0.0
  0
LINE
  5
17B
  8
DETAIL
  6
CONTINUOUS
 62
     5
 10
155.349929
 20
149.8626
 30
0.0
 11
155.375044
 21
149.965535
 31
0.0
  0
LINE
  5
17C
  8
DETAIL
  6
CONTINUOUS
 62
     5
 10
155.375044
 20
149.965535
 30
0.0
 11
155.4
 21
150.0
 31
0.0
  0
LINE
  5
17D
  8
DETAIL
  6
CONTINUOUS
 62
     5
 10
156.199298
 20
148.274938
 30
0.0
 11
156.472792
 21
148.3
 31
0.0
  0
LINE
  5
17E
  8
DETAIL
  6
CONTINUOUS
 62
     5
 10
156.472792
 20
148.3
 30
0.0
 11
156.697132
 21
148.325062
 31
0.0
  0
LINE
  5
17F
  8
DETAIL
  6
CONTINUOUS
 62
     5
 10
156.697132
 20
148.325062
 30
0.0
 11
156.8626
 21
148.349929
 31
0.0
  0
LINE
  5
180
  8
DETAIL
  6
CONTINUOUS
 62
     5
 10
156.8626
 20
148.349929
 30
0.0
 11
156.965535
 21
148.375044
 31
0.0
  0
LINE
  5
181
  8
DETAIL
  6
CONTINUOUS
 62
     5
 10
156.965535
 20
148.375044
 30
0.0
 11
157.0
 21
148.4
 31
0.0
  0
LINE
  5
182
  8
DETAIL
  6
CONTINUOUS
 62
     5
 10
155.889755
 20
148.250071
 30
0.0
 11
156.199298
 21
148.274938
 31
0.0
  0
LINE
  5
183
  8
DETAIL
  6
CONTINUOUS
 62
     5
 10
155.2
 20
148.2
 30
0.0
 11
155.889755
 21
148.250071
 31
0.0
  0
LINE
  5
184
  8
DETAIL
  6
CONTINUOUS
 62
     5
 10
157.0
 20
130.0
 30
0.0
 11
159.3
 21
130.0
 31
0.0
  0
LINE
  5
185
  8
DETAIL
  6
CONTINUOUS
 62
     5
 10
157.0
 20
140.0
 30
0.0
 11
159.3
 21
140.0
 31
0.0
  0
LINE
  5
186
  8
DETAIL
  6
CONTINUOUS
 62
     5
 10
157.0
 20
148.4
 30
0.0
 11
155.4
 21
148.4
 31
0.0
  0
LINE
  5
187
  8
DETAIL
  6
CONTINUOUS
 62
     5
 10
155.2
 20
148.2
 30
0.0
 11
155.250051
 21
148.27661
 31
0.0
  0
LINE
  5
188
  8
DETAIL
  6
CONTINUOUS
 62
     5
 10
155.250051
 20
148.27661
 30
0.0
 11
155.3
 21
148.341421
 31
0.0
  0
LINE
  5
189
  8
DETAIL
  6
CONTINUOUS
 62
     5
 10
155.3
 20
148.341421
 30
0.0
 11
155.349949
 21
148.384745
 31
0.0
  0
LINE
  5
18A
  8
DETAIL
  6
CONTINUOUS
 62
     5
 10
155.349949
 20
148.384745
 30
0.0
 11
155.4
 21
148.4
 31
0.0
  0
LINE
  5
18B
  8
DETAIL
  6
CONTINUOUS
 62
     5
 10
155.2
 20
148.2
 30
0.0
 11
155.27661
 21
148.250051
 31
0.0
  0
LINE
  5
18C
  8
DETAIL
  6
CONTINUOUS
 62
     5
 10
155.27661
 20
148.250051
 30
0.0
 11
155.341421
 21
148.3
 31
0.0
  0
LINE
  5
18D
  8
DETAIL
  6
CONTINUOUS
 62
     5
 10
155.341421
 20
148.3
 30
0.0
 11
155.384745
 21
148.349949
 31
0.0
  0
LINE
  5
18E
  8
DETAIL
  6
CONTINUOUS
 62
     5
 10
155.384745
 20
148.349949
 30
0.0
 11
155.4
 21
148.4
 31
0.0
  0
ARC
  5
18F
  8
DETAIL
  6
CONTINUOUS
 62
     5
 10
159.5
 20
147.5
 30
0.0
 40
0.2
 50
90.0
 51
180.0
  0
LINE
  5
190
  8
DETAIL
  6
CONTINUOUS
 62
     5
 10
155.4
 20
150.0
 30
0.0
 11
155.4
 21
148.4
 31
0.0
  0
ARC
  5
191
  8
DETAIL
  6
CONTINUOUS
 62
     5
 10
159.5
 20
147.5
 30
0.0
 40
2.5
 50
90.0
 51
180.0
  0
LINE
  5
192
  8
DETAIL
  6
CONTINUOUS
 62
     5
 10
155.2
 20
148.2
 30
0.0
 11
155.250071
 21
148.889755
 31
0.0
  0
LINE
  5
193
  8
DETAIL
  6
CONTINUOUS
 62
     5
 10
207.0
 20
150.0
 30
0.0
 11
207.0
 21
147.7
 31
0.0
  0
LINE
  5
194
  8
DETAIL
  6
CONTINUOUS
 62
     5
 10
159.5
 20
147.7
 30
0.0
 11
207.0
 21
147.7
 31
0.0
  0
LINE
  5
195
  8
DETAIL
  6
CONTINUOUS
 62
     5
 10
120.0
 20
525.0
 30
0.0
 11
200.0
 21
525.0
 31
0.0
  0
LINE
  5
196
  8
DETAIL
  6
CONTINUOUS
 62
     5
 10
120.0
 20
445.0
 30
0.0
 11
200.0
 21
445.0
 31
0.0
  0
LINE
  5
197
  8
DETAIL
  6
CONTINUOUS
 62
     5
 10
120.0
 20
435.0
 30
0.0
 11
200.0
 21
435.0
 31
0.0
  0
LINE
  5
198
  8
DETAIL
  6
CONTINUOUS
 62
     5
 10
120.0
 20
345.0
 30
0.0
 11
200.0
 21
345.0
 31
0.0
  0
LINE
  5
199
  8
DETAIL
  6
CONTINUOUS
 62
     5
 10
120.0
 20
355.0
 30
0.0
 11
200.0
 21
355.0
 31
0.0
  0
LINE
  5
19A
  8
DETAIL
  6
CONTINUOUS
 62
     5
 10
30.0
 20
525.0
 30
0.0
 11
30.0
 21
445.0
 31
0.0
  0
LINE
  5
19B
  8
DETAIL
  6
CONTINUOUS
 62
     5
 10
20.0
 20
525.0
 30
0.0
 11
20.0
 21
445.0
 31
0.0
  0
LINE
  5
19C
  8
DETAIL
  6
CONTINUOUS
 62
     5
 10
110.0
 20
525.0
 30
0.0
 11
110.0
 21
445.0
 31
0.0
  0
LINE
  5
19D
  8
DETAIL
  6
CONTINUOUS
 62
     5
 10
120.0
 20
525.0
 30
0.0
 11
120.0
 21
445.0
 31
0.0
  0
LINE
  5
19E
  8
DETAIL
  6
CONTINUOUS
 62
     5
 10
120.0
 20
435.0
 30
0.0
 11
120.0
 21
355.0
 31
0.0
  0
LINE
  5
19F
  8
DETAIL
  6
CONTINUOUS
 62
     5
 10
110.0
 20
435.0
 30
0.0
 11
110.0
 21
355.0
 31
0.0
  0
LINE
  5
1A0
  8
DETAIL
  6
CONTINUOUS
 62
     5
 10
30.0
 20
435.0
 30
0.0
 11
30.0
 21
355.0
 31
0.0
  0
LINE
  5
1A1
  8
DETAIL
  6
CONTINUOUS
 62
     5
 10
20.0
 20
435.0
 30
0.0
 11
20.0
 21
355.0
 31
0.0
  0
LINE
  5
1A2
  8
DETAIL
  6
CONTINUOUS
 62
     5
 10
30.0
 20
525.0
 30
0.0
 11
110.0
 21
525.0
 31
0.0
  0
LINE
  5
1A3
  8
DETAIL
  6
CONTINUOUS
 62
     5
 10
30.0
 20
435.0
 30
0.0
 11
110.0
 21
435.0
 31
0.0
  0
LINE
  5
1A4
  8
DETAIL
  6
CONTINUOUS
 62
     5
 10
30.0
 20
445.0
 30
0.0
 11
110.0
 21
445.0
 31
0.0
  0
LINE
  5
1A5
  8
DETAIL
  6
CONTINUOUS
 62
     5
 10
30.0
 20
355.0
 30
0.0
 11
110.0
 21
355.0
 31
0.0
  0
LINE
  5
1A6
  8
DETAIL
  6
CONTINUOUS
 62
     5
 10
30.0
 20
345.0
 30
0.0
 11
110.0
 21
345.0
 31
0.0
  0
LINE
  5
1A7
  8
DETAIL
  6
CONTINUOUS
 62
     5
 10
200.0
 20
435.0
 30
0.0
 11
200.0
 21
355.0
 31
0.0
  0
LINE
  5
1A8
  8
DETAIL
  6
CONTINUOUS
 62
     5
 10
200.0
 20
525.0
 30
0.0
 11
200.0
 21
445.0
 31
0.0
  0
LINE
  5
1A9
  8
DETAIL
  6
CONTINUOUS
 62
     5
 10
-60.0
 20
615.0
 30
0.0
 11
20.0
 21
615.0
 31
0.0
  0
LINE
  5
1AA
  8
DETAIL
  6
CONTINUOUS
 62
     5
 10
-60.0
 20
535.0
 30
0.0
 11
20.0
 21
535.0
 31
0.0
  0
LINE
  5
1AB
  8
DETAIL
  6
CONTINUOUS
 62
     5
 10
-60.0
 20
625.0
 30
0.0
 11
20.0
 21
625.0
 31
0.0
  0
LINE
  5
1AC
  8
DETAIL
  6
CONTINUOUS
 62
     5
 10
-60.0
 20
705.0
 30
0.0
 11
20.0
 21
705.0
 31
0.0
  0
LINE
  5
1AD
  8
DETAIL
  6
CONTINUOUS
 62
     5
 10
-60.0
 20
795.0
 30
0.0
 11
20.0
 21
795.0
 31
0.0
  0
LINE
  5
1AE
  8
DETAIL
  6
CONTINUOUS
 62
     5
 10
-60.0
 20
715.0
 30
0.0
 11
20.0
 21
715.0
 31
0.0
  0
LINE
  5
1AF
  8
DETAIL
  6
CONTINUOUS
 62
     5
 10
-60.0
 20
885.0
 30
0.0
 11
20.0
 21
885.0
 31
0.0
  0
LINE
  5
1B0
  8
DETAIL
  6
CONTINUOUS
 62
     5
 10
-60.0
 20
805.0
 30
0.0
 11
20.0
 21
805.0
 31
0.0
  0
LINE
  5
1B1
  8
DETAIL
  6
CONTINUOUS
 62
     5
 10
-60.0
 20
975.0
 30
0.0
 11
20.0
 21
975.0
 31
0.0
  0
LINE
  5
1B2
  8
DETAIL
  6
CONTINUOUS
 62
     5
 10
-60.0
 20
895.0
 30
0.0
 11
20.0
 21
895.0
 31
0.0
  0
LINE
  5
1B3
  8
DETAIL
  6
CONTINUOUS
 62
     5
 10
-60.0
 20
795.0
 30
0.0
 11
-60.0
 21
715.0
 31
0.0
  0
LINE
  5
1B4
  8
OUTLINE
  6
CONTINUOUS
 62
     3
 10
-210.0
 20
760.2
 30
0.0
 11
-210.0
 21
733.6
 31
0.0
  0
LINE
  5
1B5
  8
DETAIL
  6
CONTINUOUS
 62
     5
 10
-60.0
 20
705.0
 30
0.0
 11
-60.0
 21
625.0
 31
0.0
  0
LINE
  5
1B6
  8
DETAIL
  6
CONTINUOUS
 62
     5
 10
-60.0
 20
615.0
 30
0.0
 11
-60.0
 21
535.0
 31
0.0
  0
LINE
  5
1B7
  8
DETAIL
  6
CONTINUOUS
 62
     5
 10
-60.0
 20
975.0
 30
0.0
 11
-60.0
 21
895.0
 31
0.0
  0
LINE
  5
1B8
  8
DETAIL
  6
CONTINUOUS
 62
     5
 10
-60.0
 20
885.0
 30
0.0
 11
-60.0
 21
805.0
 31
0.0
  0
LINE
  5
1B9
  8
DETAIL
  6
CONTINUOUS
 62
     5
 10
110.0
 20
795.0
 30
0.0
 11
110.0
 21
715.0
 31
0.0
  0
LINE
  5
1BA
  8
DETAIL
  6
CONTINUOUS
 62
     5
 10
20.0
 20
795.0
 30
0.0
 11
20.0
 21
715.0
 31
0.0
  0
LINE
  5
1BB
  8
DETAIL
  6
CONTINUOUS
 62
     5
 10
30.0
 20
795.0
 30
0.0
 11
30.0
 21
715.0
 31
0.0
  0
LINE
  5
1BC
  8
DETAIL
  6
CONTINUOUS
 62
     5
 10
120.0
 20
615.0
 30
0.0
 11
200.0
 21
615.0
 31
0.0
  0
LINE
  5
1BD
  8
DETAIL
  6
CONTINUOUS
 62
     5
 10
120.0
 20
535.0
 30
0.0
 11
200.0
 21
535.0
 31
0.0
  0
LINE
  5
1BE
  8
DETAIL
  6
CONTINUOUS
 62
     5
 10
20.0
 20
705.0
 30
0.0
 11
20.0
 21
625.0
 31
0.0
  0
LINE
  5
1BF
  8
DETAIL
  6
CONTINUOUS
 62
     5
 10
30.0
 20
705.0
 30
0.0
 11
30.0
 21
625.0
 31
0.0
  0
LINE
  5
1C0
  8
DETAIL
  6
CONTINUOUS
 62
     5
 10
110.0
 20
705.0
 30
0.0
 11
110.0
 21
625.0
 31
0.0
  0
LINE
  5
1C1
  8
DETAIL
  6
CONTINUOUS
 62
     5
 10
120.0
 20
615.0
 30
0.0
 11
120.0
 21
535.0
 31
0.0
  0
LINE
  5
1C2
  8
DETAIL
  6
CONTINUOUS
 62
     5
 10
110.0
 20
615.0
 30
0.0
 11
110.0
 21
535.0
 31
0.0
  0
LINE
  5
1C3
  8
DETAIL
  6
CONTINUOUS
 62
     5
 10
30.0
 20
615.0
 30
0.0
 11
30.0
 21
535.0
 31
0.0
  0
LINE
  5
1C4
  8
DETAIL
  6
CONTINUOUS
 62
     5
 10
20.0
 20
615.0
 30
0.0
 11
20.0
 21
535.0
 31
0.0
  0
LINE
  5
1C5
  8
DETAIL
  6
CONTINUOUS
 62
     5
 10
30.0
 20
705.0
 30
0.0
 11
110.0
 21
705.0
 31
0.0
  0
LINE
  5
1C6
  8
DETAIL
  6
CONTINUOUS
 62
     5
 10
30.0
 20
715.0
 30
0.0
 11
110.0
 21
715.0
 31
0.0
  0
LINE
  5
1C7
  8
DETAIL
  6
CONTINUOUS
 62
     5
 10
30.0
 20
625.0
 30
0.0
 11
110.0
 21
625.0
 31
0.0
  0
LINE
  5
1C8
  8
DETAIL
  6
CONTINUOUS
 62
     5
 10
30.0
 20
615.0
 30
0.0
 11
110.0
 21
615.0
 31
0.0
  0
LINE
  5
1C9
  8
DETAIL
  6
CONTINUOUS
 62
     5
 10
30.0
 20
535.0
 30
0.0
 11
110.0
 21
535.0
 31
0.0
  0
LINE
  5
1CA
  8
DETAIL
  6
CONTINUOUS
 62
     5
 10
200.0
 20
615.0
 30
0.0
 11
200.0
 21
535.0
 31
0.0
  0
LINE
  5
1CB
  8
DETAIL
  6
CONTINUOUS
 62
     5
 10
120.0
 20
975.0
 30
0.0
 11
200.0
 21
975.0
 31
0.0
  0
LINE
  5
1CC
  8
DETAIL
  6
CONTINUOUS
 62
     5
 10
120.0
 20
895.0
 30
0.0
 11
200.0
 21
895.0
 31
0.0
  0
LINE
  5
1CD
  8
DETAIL
  6
CONTINUOUS
 62
     5
 10
120.0
 20
975.0
 30
0.0
 11
120.0
 21
895.0
 31
0.0
  0
LINE
  5
1CE
  8
DETAIL
  6
CONTINUOUS
 62
     5
 10
110.0
 20
975.0
 30
0.0
 11
110.0
 21
895.0
 31
0.0
  0
LINE
  5
1CF
  8
DETAIL
  6
CONTINUOUS
 62
     5
 10
30.0
 20
975.0
 30
0.0
 11
30.0
 21
895.0
 31
0.0
  0
LINE
  5
1D0
  8
DETAIL
  6
CONTINUOUS
 62
     5
 10
20.0
 20
975.0
 30
0.0
 11
20.0
 21
895.0
 31
0.0
  0
LINE
  5
1D1
  8
DETAIL
  6
CONTINUOUS
 62
     5
 10
20.0
 20
885.0
 30
0.0
 11
20.0
 21
805.0
 31
0.0
  0
LINE
  5
1D2
  8
DETAIL
  6
CONTINUOUS
 62
     5
 10
30.0
 20
885.0
 30
0.0
 11
30.0
 21
805.0
 31
0.0
  0
LINE
  5
1D3
  8
DETAIL
  6
CONTINUOUS
 62
     5
 10
110.0
 20
885.0
 30
0.0
 11
110.0
 21
805.0
 31
0.0
  0
LINE
  5
1D4
  8
DETAIL
  6
CONTINUOUS
 62
     5
 10
30.0
 20
975.0
 30
0.0
 11
110.0
 21
975.0
 31
0.0
  0
LINE
  5
1D5
  8
DETAIL
  6
CONTINUOUS
 62
     5
 10
30.0
 20
885.0
 30
0.0
 11
110.0
 21
885.0
 31
0.0
  0
LINE
  5
1D6
  8
DETAIL
  6
CONTINUOUS
 62
     5
 10
30.0
 20
895.0
 30
0.0
 11
110.0
 21
895.0
 31
0.0
  0
LINE
  5
1D7
  8
DETAIL
  6
CONTINUOUS
 62
     5
 10
30.0
 20
805.0
 30
0.0
 11
110.0
 21
805.0
 31
0.0
  0
LINE
  5
1D8
  8
DETAIL
  6
CONTINUOUS
 62
     5
 10
30.0
 20
795.0
 30
0.0
 11
110.0
 21
795.0
 31
0.0
  0
LINE
  5
1D9
  8
DETAIL
  6
CONTINUOUS
 62
     5
 10
200.0
 20
975.0
 30
0.0
 11
200.0
 21
895.0
 31
0.0
  0
ARC
  5
1DA
  8
OUTLINE
  6
CONTINUOUS
 62
     3
 10
-204.546544
 20
1102.295339
 30
0.0
 40
228.969614
 50
91.364764
 51
109.336833
  0
LINE
  5
1DB
  8
SIZE
  6
CONTINUOUS
 62
    30
 10
200.0
 20
1798.810771
 30
0.0
 11
-275.0
 21
1798.810771
 31
0.0
  0
ARC
  5
1DC
  8
DETAIL
  6
CONTINUOUS
 62
     5
 10
-204.546544
 20
1102.295339
 30
0.0
 40
228.969614
 50
91.364764
 51
109.336833
  0
LINE
  5
1DD
  8
DETAIL
  6
CONTINUOUS
 62
     5
 10
-275.0
 20
1285.7
 30
0.0
 11
-210.0
 21
1285.7
 31
0.0
  0
LINE
  5
1DE
  8
DETAIL
  6
CONTINUOUS
 62
     5
 10
-275.0
 20
1265.7
 30
0.0
 11
-210.0
 21
1265.7
 31
0.0
  0
LINE
  5
1DF
  8
SIZE
  6
CONTINUOUS
 62
    30
 10
-285.0
 20
1331.089675
 30
0.0
 11
-285.0
 21
1828.810771
 31
0.0
  0
ARC
  5
1E0
  8
OUTLINE
  6
CONTINUOUS
 62
     3
 10
-277.0
 20
1311.089675
 30
0.0
 40
8.0
 50
114.859878
 51
180.0
  0
ARC
  5
1E1
  8
DETAIL
  6
CONTINUOUS
 62
     5
 10
-275.0
 20
1275.7
 30
0.0
 40
10.0
 50
90.0
 51
270.0
  0
ARC
  5
1E2
  8
DETAIL
  6
CONTINUOUS
 62
     5
 10
-277.0
 20
1311.089675
 30
0.0
 40
8.0
 50
114.859878
 51
180.0
  0
CIRCLE
  5
1E3
  8
SIZE
  6
CONTINUOUS
 62
    30
 10
-285.0
 20
1798.810771
 30
0.0
 40
5.0
  0
LINE
  5
1E4
  8
SIZE
  6
CONTINUOUS
 62
    30
 10
-280.0
 20
1798.810771
 30
0.0
 11
-275.0
 21
1798.810771
 31
0.0
  0
LINE
  5
1E5
  8
SIZE
  6
CONTINUOUS
 62
    30
 10
210.0
 20
1394.0
 30
0.0
 11
210.0
 21
1828.810771
 31
0.0
  0
LINE
  5
1E6
  8
SIZE
  6
CONTINUOUS
 62
    30
 10
-210.0
 20
1395.0
 30
0.0
 11
-210.0
 21
1685.540177
 31
0.0
  0
LINE
  5
1E7
  8
SIZE
  6
CONTINUOUS
 62
    30
 10
210.0
 20
1394.0
 30
0.0
 11
210.0
 21
1685.540177
 31
0.0
  0
LINE
  5
1E8
  8
SIZE
  6
CONTINUOUS
 62
    30
 10
119.0
 20
1360.0
 30
0.0
 11
119.0
 21
1560.694271
 31
0.0
  0
LINE
  5
1E9
  8
SIZE
  6
CONTINUOUS
 62
    30
 10
-210.0
 20
1395.0
 30
0.0
 11
-210.0
 21
1560.694271
 31
0.0
  0
LINE
  5
1EA
  8
DETAIL
  6
CONTINUOUS
 62
     5
 10
-60.0
 20
985.0
 30
0.0
 11
20.0
 21
985.0
 31
0.0
  0
LINE
  5
1EB
  8
DETAIL
  6
CONTINUOUS
 62
     5
 10
-60.0
 20
1065.0
 30
0.0
 11
20.0
 21
1065.0
 31
0.0
  0
LINE
  5
1EC
  8
DETAIL
  6
CONTINUOUS
 62
     5
 10
-60.0
 20
1075.0
 30
0.0
 11
20.0
 21
1075.0
 31
0.0
  0
LINE
  5
1ED
  8
DETAIL
  6
CONTINUOUS
 62
     5
 10
-60.0
 20
1155.0
 30
0.0
 11
20.0
 21
1155.0
 31
0.0
  0
LINE
  5
1EE
  8
DETAIL
  6
CONTINUOUS
 62
     5
 10
-60.0
 20
1165.0
 30
0.0
 11
20.0
 21
1165.0
 31
0.0
  0
LINE
  5
1EF
  8
DETAIL
  6
CONTINUOUS
 62
     5
 10
-60.0
 20
1245.0
 30
0.0
 11
20.0
 21
1245.0
 31
0.0
  0
LINE
  5
1F0
  8
DETAIL
  6
CONTINUOUS
 62
     5
 10
-60.0
 20
1255.0
 30
0.0
 11
20.0
 21
1255.0
 31
0.0
  0
LINE
  5
1F1
  8
OUTLINE
  6
CONTINUOUS
 62
     3
 10
-210.0
 20
1375.0
 30
0.0
 11
210.0
 21
1375.0
 31
0.0
  0
LINE
  5
1F2
  8
DETAIL
  6
CONTINUOUS
 62
     5
 10
-210.0
 20
1335.0
 30
0.0
 11
210.0
 21
1335.0
 31
0.0
  0
LINE
  5
1F3
  8
DETAIL
  6
CONTINUOUS
 62
     5
 10
-210.0
 20
1375.0
 30
0.0
 11
210.0
 21
1375.0
 31
0.0
  0
LINE
  5
1F4
  8
DETAIL
  6
CONTINUOUS
 62
     5
 10
-60.0
 20
1245.0
 30
0.0
 11
-60.0
 21
1165.0
 31
0.0
  0
LINE
  5
1F5
  8
DETAIL
  6
CONTINUOUS
 62
     5
 10
-60.0
 20
1155.0
 30
0.0
 11
-60.0
 21
1075.0
 31
0.0
  0
LINE
  5
1F6
  8
DETAIL
  6
CONTINUOUS
 62
     5
 10
-60.0
 20
1065.0
 30
0.0
 11
-60.0
 21
985.0
 31
0.0
  0
LINE
  5
1F7
  8
OUTLINE
  6
CONTINUOUS
 62
     3
 10
-210.0
 20
1375.0
 30
0.0
 11
-210.0
 21
1331.2
 31
0.0
  0
LINE
  5
1F8
  8
DETAIL
  6
CONTINUOUS
 62
     5
 10
-202.0
 20
1365.0
 30
0.0
 11
-210.0
 21
1373.0
 31
0.0
  0
LINE
  5
1F9
  8
DETAIL
  6
CONTINUOUS
 62
     5
 10
-202.0
 20
1335.0
 30
0.0
 11
-202.0
 21
1365.0
 31
0.0
  0
LINE
  5
1FA
  8
DETAIL
  6
CONTINUOUS
 62
     5
 10
-60.0
 20
1335.0
 30
0.0
 11
-60.0
 21
1255.0
 31
0.0
  0
LINE
  5
1FB
  8
DETAIL
  6
CONTINUOUS
 62
     5
 10
200.0
 20
1245.0
 30
0.0
 11
200.0
 21
1165.0
 31
0.0
  0
LINE
  5
1FC
  8
DETAIL
  6
CONTINUOUS
 62
     5
 10
20.0
 20
1245.0
 30
0.0
 11
20.0
 21
1165.0
 31
0.0
  0
LINE
  5
1FD
  8
DETAIL
  6
CONTINUOUS
 62
     5
 10
30.0
 20
1245.0
 30
0.0
 11
30.0
 21
1165.0
 31
0.0
  0
LINE
  5
1FE
  8
DETAIL
  6
CONTINUOUS
 62
     5
 10
110.0
 20
1245.0
 30
0.0
 11
110.0
 21
1165.0
 31
0.0
  0
LINE
  5
1FF
  8
DETAIL
  6
CONTINUOUS
 62
     5
 10
120.0
 20
1245.0
 30
0.0
 11
120.0
 21
1165.0
 31
0.0
  0
LINE
  5
200
  8
DETAIL
  6
CONTINUOUS
 62
     5
 10
120.0
 20
1165.0
 30
0.0
 11
200.0
 21
1165.0
 31
0.0
  0
LINE
  5
201
  8
DETAIL
  6
CONTINUOUS
 62
     5
 10
120.0
 20
1155.0
 30
0.0
 11
200.0
 21
1155.0
 31
0.0
  0
LINE
  5
202
  8
DETAIL
  6
CONTINUOUS
 62
     5
 10
120.0
 20
1075.0
 30
0.0
 11
200.0
 21
1075.0
 31
0.0
  0
LINE
  5
203
  8
DETAIL
  6
CONTINUOUS
 62
     5
 10
120.0
 20
1065.0
 30
0.0
 11
200.0
 21
1065.0
 31
0.0
  0
LINE
  5
204
  8
DETAIL
  6
CONTINUOUS
 62
     5
 10
120.0
 20
985.0
 30
0.0
 11
200.0
 21
985.0
 31
0.0
  0
LINE
  5
205
  8
DETAIL
  6
CONTINUOUS
 62
     5
 10
120.0
 20
1155.0
 30
0.0
 11
120.0
 21
1075.0
 31
0.0
  0
LINE
  5
206
  8
DETAIL
  6
CONTINUOUS
 62
     5
 10
110.0
 20
1155.0
 30
0.0
 11
110.0
 21
1075.0
 31
0.0
  0
LINE
  5
207
  8
DETAIL
  6
CONTINUOUS
 62
     5
 10
30.0
 20
1155.0
 30
0.0
 11
30.0
 21
1075.0
 31
0.0
  0
LINE
  5
208
  8
DETAIL
  6
CONTINUOUS
 62
     5
 10
20.0
 20
1155.0
 30
0.0
 11
20.0
 21
1075.0
 31
0.0
  0
LINE
  5
209
  8
DETAIL
  6
CONTINUOUS
 62
     5
 10
20.0
 20
1065.0
 30
0.0
 11
20.0
 21
985.0
 31
0.0
  0
LINE
  5
20A
  8
DETAIL
  6
CONTINUOUS
 62
     5
 10
30.0
 20
1065.0
 30
0.0
 11
30.0
 21
985.0
 31
0.0
  0
LINE
  5
20B
  8
DETAIL
  6
CONTINUOUS
 62
     5
 10
110.0
 20
1065.0
 30
0.0
 11
110.0
 21
985.0
 31
0.0
  0
LINE
  5
20C
  8
DETAIL
  6
CONTINUOUS
 62
     5
 10
120.0
 20
1065.0
 30
0.0
 11
120.0
 21
985.0
 31
0.0
  0
LINE
  5
20D
  8
DETAIL
  6
CONTINUOUS
 62
     5
 10
30.0
 20
1165.0
 30
0.0
 11
110.0
 21
1165.0
 31
0.0
  0
LINE
  5
20E
  8
DETAIL
  6
CONTINUOUS
 62
     5
 10
30.0
 20
1155.0
 30
0.0
 11
110.0
 21
1155.0
 31
0.0
  0
LINE
  5
20F
  8
DETAIL
  6
CONTINUOUS
 62
     5
 10
30.0
 20
1065.0
 30
0.0
 11
110.0
 21
1065.0
 31
0.0
  0
LINE
  5
210
  8
DETAIL
  6
CONTINUOUS
 62
     5
 10
30.0
 20
1075.0
 30
0.0
 11
110.0
 21
1075.0
 31
0.0
  0
LINE
  5
211
  8
DETAIL
  6
CONTINUOUS
 62
     5
 10
30.0
 20
985.0
 30
0.0
 11
110.0
 21
985.0
 31
0.0
  0
LINE
  5
212
  8
DETAIL
  6
CONTINUOUS
 62
     5
 10
200.0
 20
1065.0
 30
0.0
 11
200.0
 21
985.0
 31
0.0
  0
LINE
  5
213
  8
DETAIL
  6
CONTINUOUS
 62
     5
 10
200.0
 20
1155.0
 30
0.0
 11
200.0
 21
1075.0
 31
0.0
  0
LINE
  5
214
  8
DETAIL
  6
CONTINUOUS
 62
     5
 10
120.0
 20
1255.0
 30
0.0
 11
200.0
 21
1255.0
 31
0.0
  0
LINE
  5
215
  8
DETAIL
  6
CONTINUOUS
 62
     5
 10
120.0
 20
1245.0
 30
0.0
 11
200.0
 21
1245.0
 31
0.0
  0
LINE
  5
216
  8
NOTE
  6
CONTINUOUS
 62
     4
 10
99.0
 20
1260.0
 30
0.0
 11
139.0
 21
1260.0
 31
0.0
  0
LINE
  5
217
  8
NOTE
  6
CONTINUOUS
 62
     4
 10
99.0
 20
1320.0
 30
0.0
 11
139.0
 21
1320.0
 31
0.0
  0
LINE
  5
218
  8
NOTE
  6
CONTINUOUS
 62
     4
 10
119.0
 20
1260.0
 30
0.0
 11
146.372044
 21
1281.368381
 31
0.0
  0
LINE
  5
219
  8
NOTE
  6
CONTINUOUS
 62
     4
 10
119.0
 20
1320.0
 30
0.0
 11
146.372044
 21
1341.368381
 31
0.0
  0
LINE
  5
21A
  8
DETAIL
  6
CONTINUOUS
 62
     5
 10
30.0
 20
1255.0
 30
0.0
 11
110.0
 21
1255.0
 31
0.0
  0
LINE
  5
21B
  8
DETAIL
  6
CONTINUOUS
 62
     5
 10
30.0
 20
1245.0
 30
0.0
 11
110.0
 21
1245.0
 31
0.0
  0
LINE
  5
21C
  8
DETAIL
  6
CONTINUOUS
 62
     5
 10
20.0
 20
1335.0
 30
0.0
 11
20.0
 21
1255.0
 31
0.0
  0
LINE
  5
21D
  8
DETAIL
  6
CONTINUOUS
 62
     5
 10
30.0
 20
1335.0
 30
0.0
 11
30.0
 21
1255.0
 31
0.0
  0
LINE
  5
21E
  8
DETAIL
  6
CONTINUOUS
 62
     5
 10
110.0
 20
1335.0
 30
0.0
 11
110.0
 21
1255.0
 31
0.0
  0
LINE
  5
21F
  8
DETAIL
  6
CONTINUOUS
 62
     5
 10
120.0
 20
1335.0
 30
0.0
 11
120.0
 21
1255.0
 31
0.0
  0
LINE
  5
220
  8
NOTE
  6
CONTINUOUS
 62
     4
 10
119.0
 20
1240.0
 30
0.0
 11
119.0
 21
1280.0
 31
0.0
  0
LINE
  5
221
  8
NOTE
  6
CONTINUOUS
 62
     4
 10
119.0
 20
1260.0
 30
0.0
 11
127.02132
 21
1293.786017
 31
0.0
  0
LINE
  5
222
  8
NOTE
  6
CONTINUOUS
 62
     4
 10
119.0
 20
1300.0
 30
0.0
 11
119.0
 21
1340.0
 31
0.0
  0
LINE
  5
223
  8
NOTE
  6
CONTINUOUS
 62
     4
 10
119.0
 20
1320.0
 30
0.0
 11
127.02132
 21
1353.786017
 31
0.0
  0
LINE
  5
224
  8
DETAIL
  6
CONTINUOUS
 62
     5
 10
200.0
 20
1335.0
 30
0.0
 11
200.0
 21
1255.0
 31
0.0
  0
LINE
  5
225
  8
DETAIL
  6
CONTINUOUS
 62
     5
 10
210.0
 20
1375.0
 30
0.0
 11
200.0
 21
1365.0
 31
0.0
  0
LINE
  5
226
  8
DETAIL
  6
CONTINUOUS
 62
     5
 10
210.0
 20
1374.0
 30
0.0
 11
210.0
 21
1335.0
 31
0.0
  0
LINE
  5
227
  8
DETAIL
  6
CONTINUOUS
 62
     5
 10
200.0
 20
1335.0
 30
0.0
 11
200.0
 21
1365.0
 31
0.0
  0
TEXT
  5
228
  8
SIZE
  6
CONTINUOUS
 62
    30
 10
-74.057143
 20
1685.540177
 30
0.0
 40
64.0
  1
420
 41
0.9
 72
     1
 11
0.0
 21
1685.540177
 31
0.0
  0
LINE
  5
229
  8
SIZE
  6
CONTINUOUS
 62
    30
 10
200.0
 20
1655.540177
 30
0.0
 11
-200.0
 21
1655.540177
 31
0.0
  0
TEXT
  5
22A
  8
SIZE
  6
CONTINUOUS
 62
    30
 10
-118.185714
 20
1560.694271
 30
0.0
 40
64.0
  1
329
 41
0.9
 72
     1
 11
-45.5
 21
1560.694271
 31
0.0
  0
LINE
  5
22B
  8
SIZE
  6
CONTINUOUS
 62
    30
 10
-200.0
 20
1530.694271
 30
0.0
 11
109.0
 21
1530.694271
 31
0.0
  0
CIRCLE
  5
22C
  8
SIZE
  6
CONTINUOUS
 62
    30
 10
-210.0
 20
1530.694271
 30
0.0
 40
5.0
  0
LINE
  5
22D
  8
SIZE
  6
CONTINUOUS
 62
    30
 10
-205.0
 20
1530.694271
 30
0.0
 11
-200.0
 21
1530.694271
 31
0.0
  0
CIRCLE
  5
22E
  8
SIZE
  6
CONTINUOUS
 62
    30
 10
-210.0
 20
1655.540177
 30
0.0
 40
5.0
  0
LINE
  5
22F
  8
SIZE
  6
CONTINUOUS
 62
    30
 10
-205.0
 20
1655.540177
 30
0.0
 11
-200.0
 21
1655.540177
 31
0.0
  0
CIRCLE
  5
230
  8
SIZE
  6
CONTINUOUS
 62
    30
 10
119.0
 20
1530.694271
 30
0.0
 40
5.0
  0
LINE
  5
231
  8
SIZE
  6
CONTINUOUS
 62
    30
 10
114.0
 20
1530.694271
 30
0.0
 11
109.0
 21
1530.694271
 31
0.0
  0
CIRCLE
  5
232
  8
SIZE
  6
CONTINUOUS
 62
    30
 10
210.0
 20
1798.810771
 30
0.0
 40
5.0
  0
LINE
  5
233
  8
SIZE
  6
CONTINUOUS
 62
    30
 10
205.0
 20
1798.810771
 30
0.0
 11
200.0
 21
1798.810771
 31
0.0
  0
CIRCLE
  5
234
  8
SIZE
  6
CONTINUOUS
 62
    30
 10
210.0
 20
1655.540177
 30
0.0
 40
5.0
  0
LINE
  5
235
  8
SIZE
  6
CONTINUOUS
 62
    30
 10
205.0
 20
1655.540177
 30
0.0
 11
200.0
 21
1655.540177
 31
0.0
  0
TEXT
  5
236
  8
SIZE
  6
CONTINUOUS
 62
    30
 10
386.89049
 20
534.0
 30
0.0
 40
64.0
  1
1260
 50
90.0
 41
0.9
 72
     1
 11
386.89049
 21
630.0
 31
0.0
  0
TEXT
  5
237
  8
SIZE
  6
CONTINUOUS
 62
    30
 10
555.772705
 20
591.5
 30
0.0
 40
64.0
  1
1375
 50
90.0
 41
0.9
 72
     1
 11
555.772705
 21
687.5
 31
0.0
  0
TEXT
  5
238
  8
ETC
  6
CONTINUOUS
 62
    61
 10
523.067799
 20
1796.334952
 30
0.0
 40
64.0
  1
WERA0554
 41
0.9
  0
TEXT
  5
239
  8
SIZE
  6
CONTINUOUS
 62
    30
 10
386.89049
 20
1370.0
 30
0.0
 40
64.0
  1
60
 50
90.0
 41
0.9
 72
     1
 11
386.89049
 21
1416.628571
 31
0.0
  0
LINE
  5
23A
  8
SIZE
  6
CONTINUOUS
 62
    30
 10
416.89049
 20
1330.0
 30
0.0
 11
416.89049
 21
1493.257143
 31
0.0
  0
CIRCLE
  5
23B
  8
SIZE
  6
CONTINUOUS
 62
    30
 10
416.89049
 20
1320.0
 30
0.0
 40
5.0
  0
LINE
  5
23C
  8
SIZE
  6
CONTINUOUS
 62
    30
 10
416.89049
 20
1325.0
 30
0.0
 11
416.89049
 21
1330.0
 31
0.0
  0
CIRCLE
  5
23D
  8
SIZE
  6
CONTINUOUS
 62
    30
 10
416.89049
 20
1260.0
 30
0.0
 40
5.0
  0
LINE
  5
23E
  8
SIZE
  6
CONTINUOUS
 62
    30
 10
416.89049
 20
1255.0
 30
0.0
 11
416.89049
 21
1250.0
 31
0.0
  0
LINE
  5
23F
  8
SIZE
  6
CONTINUOUS
 62
    30
 10
416.89049
 20
1260.0
 30
0.0
 11
416.89049
 21
1320.0
 31
0.0
  0
LINE
  5
240
  8
SIZE
  6
CONTINUOUS
 62
    30
 10
416.89049
 20
1250.0
 30
0.0
 11
416.89049
 21
1240.0
 31
0.0
  0
CIRCLE
  5
241
  8
SIZE
  6
CONTINUOUS
 62
    30
 10
416.89049
 20
1260.0
 30
0.0
 40
5.0
  0
LINE
  5
242
  8
SIZE
  6
CONTINUOUS
 62
    30
 10
416.89049
 20
1255.0
 30
0.0
 11
416.89049
 21
1250.0
 31
0.0
  0
CIRCLE
  5
243
  8
SIZE
  6
CONTINUOUS
 62
    30
 10
585.772705
 20
1375.0
 30
0.0
 40
5.0
  0
LINE
  5
244
  8
SIZE
  6
CONTINUOUS
 62
    30
 10
585.772705
 20
1370.0
 30
0.0
 11
585.772705
 21
1365.0
 31
0.0
  0
LINE
  5
245
  8
NOTE
  6
CONTINUOUS
 62
     4
 10
280.258751
 20
1511.293695
 30
0.0
 11
678.476054
 21
1511.293695
 31
0.0
  0
LINE
  5
246
  8
NOTE
  6
CONTINUOUS
 62
     4
 10
301.718332
 20
1604.734717
 30
0.0
 11
678.476105
 21
1604.734717
 31
0.0
  0
TEXT
  5
247
  8
NOTE
  6
CONTINUOUS
 62
     4
 10
317.376085
 20
1613.517718
 30
0.0
 40
44.0
  1
GHP1 %%C19.05
 41
0.9
  0
TEXT
  5
248
  8
NOTE
  6
CONTINUOUS
 62
     4
 10
302.99286
 20
1520.076697
 30
0.0
 40
44.0
  1
GHP2 %%C19.05
 41
0.9
  0
ENDSEC
  0
EOF
